Log in

One click and you are in

Login with Facebook Login with Google

Why sign up and log in

Guitar Tabs Explorer
Two Door Cinema Club chords for Undercover martyn ukulele

Undercover Martyn Ukulele chords - Two Door Cinema Club

Two Door Cinema Club chords for Undercover martyn ukulele

Guitar chords

Ukulele: TDCC, undercover Martyn

Intro chords

 Dmaj7        F#m  E
A|-4-4-4-x-4-4-x-4-4-x-0-0-0--2---|
E|-2-2-2-x-2-2-x-2-2-x-2-2-2--4---|
C|-2-2-2-x-2-2-x-2-2-x-1-1-1--4---|
G|-2-2-2-x-2-2-x-2-2-x-2-2-2--4---|

Melody
A|----4h5p4------7h9p7-----7------4h5p4------9-7-------------4h5p4------7h9p7---7---4h5p4------7h9p7------|
E|--5-------5--9-------7-9---9--5-------5--9-----9--7--5---5-------5--9-------9---5-------5--9-------9-7-5|
C|--------------------------------------------------------------------------------------------------------|
G|--------------------------------------------------------------------------------------------------------|

Chords and words bit
Dmaj7        F#m       E
   And she spoke words that would melt in your hands
Dmaj7        F#m   E
   And she spoke words of wisdom
Dmaj7            Dmaj7      A   E
   To the basement people, to the basement , many surprises await you

Dmaj7            Dmaj7      A   E
   In the basement people, in the basement.


The melody is played again in the background of the chorus

A|----4h5p4------7h9p7-----7------4h5p4------9-7-------------4h5p4------7h9p7---7---4h5p4------7h9p7------|
E|--5-------5--9-------7-9---9--5-------5--9-----9--7--5---5-------5--9-------9---5-------5--9-------9-7-5|
C|--------------------------------------------------------------------------------------------------------|
G|--------------------------------------------------------------------------------------------------------|

Chords and words bit + chorus are repeated


Instrumental

A|-----4-----4-----4---9-----4-----4-----4---9-----9-----9-----9---12-----9-----9-----9---12-|
E|-5-5---5-5---5-5---5---5-5---5-5---5-5---5---5-5---5-5---5-5---5----5-5---5-5---5-5---5----|
C|-------------------------------------------------------------------------------------------|
G|-------------------------------------------------------------------------------------------|

-4-4-4-2-0-4-4-4-9-9-9--4-4-4-2-0-4-4-4-9-9-9-|
-5-5-5-----5-5-5--------5-5-5-----5-5-5-------|
----------------------------------------------|
----------------------------------------------|

Almost there ...

Sign in to get your own page with links to favourite songs and more. You are just one click away...

Login with Facebook Login with Google