Log in

One click and you are in

Login with Facebook Login with Google

Why sign up and log in

Guitar Tabs Explorer
Two Door Cinema Club bass tabs for Undercover martyn

Undercover Martyn bass tab - Two Door Cinema Club

Two Door Cinema Club bass tabs for Undercover martyn

Bass tabs

yoyoyo, its just 5 riffs through the whole song :) its dead easy aswell :D

G|------------------------------------|
D|------------------------------------| riff 1
A|-5555555555555555-99999999-77777777-|
E|------------------------------------|

G|------------------|
D|------------------| riff 2
A|-5~-5h7-0~------7-|
E|-----------2~-----|

G|------------------------------------|
D|------------------------------------| riff 3
A|-5-5-5-5-5-5-5-5h7-0-0-0-0----------|
E|----------------------------2-2-2-2-|

G|----------|
D|----------| riff 4
A|-9-9-9-99-|
E|----------|

G|-------|
D|-------| riff 5
A|-------|
E|-9-9-9-|

0:06 riff 1 x2
0:18 riff 2 x2
0:30 riff 3 x2
0:42 riff 1 x4
1:06 riff 2 x2
1:18 riff 3 x2
1:30 riff 1 x4
2:00 riff 4 x2
2:06 riff 5 x8
2:18 riff 1 x4

HAVE FUN! :

Almost there ...

Sign in to get your own page with links to favourite songs and more. You are just one click away...

Login with Facebook Login with Google