Log in

One click and you are in

Login with Facebook Login with Google

Why sign up and log in

Guitar Tabs Explorer
Two Door Cinema Club bass tabs for This is the life

This Is The Life bass tab - Two Door Cinema Club

Two Door Cinema Club bass tabs for This is the life

Bass tabs

INTRO x2

G---------------------------------|
D-7777777777997777777777777799777-|
A---------------------------------|
E---------------------------------|

G------------------------------------|
D----------------9----------------9--|
A-7-777-777-7799---7-777-777-7799--9-|
E------------------------------------|

VERSE x2

G------------------------------------------|
D-------------------------------------9999-|
A-4-4-24-4-2-4-4-2--------77---77---77-----|
E------------------2220-0---00---00--------|


PRE-CHORUS x1

G----------------------------------|
D-77777777777777779999999999999999-|
A----------------------------------|
E----------------------------------|

G------------------------------------|
D--------------9-9--------------9-9--|
A--777-777-777--7---777-777-777--7---|
E------------------------------------|

CHORUS x2

G----------------------------------------|
D-777777777799777------------------------|
A----------------7/9999999999111112121111|
E----------------------------------------|


G------------------------------------|
D----------------9----------------9--|
A-7-777-777-7799---7-777-777-7799--9-|
E------------------------------------|

REPEAT ALL FROM THE VERSE (THE 2ND CHORUS x3)

AND THEN THE OUTRO

G--------------------------------------------------------------|
D----------------4-4-4-4-4-4/11--7-7-7-7-7-7-7-7-7-7-7-7-7-7-9-|
A-4-4-4-4-4-44224----------------------------------------------|
E--------------------------------------------------------------|

G---------------------------------|
D--------------2--44-444-444-4/11-|
A-44-244-244-24-42----------------|
E---------------------------------|

G---------------6----------------|
D-77-777-777-779-9-77-777-777-79-|
A--------------------------------|
E--------------------------------|

G---------------------------------|
D--------------2-----------------|
A-44-244-244-24-42-44-244-24-4----|
E---------------------------------|

Almost there ...

Sign in to get your own page with links to favourite songs and more. You are just one click away...

Login with Facebook Login with Google