Log in

One click and you are in

Login with Facebook Login with Google

Why sign up and log in

Guitar Tabs Explorer
Two Door Cinema Club bass tabs for Sun

Bass tabs

Tuning: Standard (E A D G)

Difficulty: Novice

Intro:
Silent x8 bars
G|-------------------------------|-----------------------------------|
D|-------4---5-----------7-------|----------------------14---12------|
A|---5---------------------------|---3---3---5---7----------------14-| x2
E|---------------5-5---------5-7-|-----------------------------------|


Verse 1:
  Drawn apart...      New York and London...
G|-------------------------------|-----------------------------------|
D|-------4---5-----------7-------|----------------------14---12------|
A|---5---------------------------|---3---3---5---7----------------14-| x3
E|---------------5-5---------5-7-|-----------------------------------|

   And I wonder   will you  wait  for   me?
G|-------------------------------|-----------------------------------|
D|-------4---5-----------7---5-7-|-----------------------------------|
A|---5---------------------------|---5---5---5---5---5---5---5---5---|
E|---------------5-5-------------|-----------------------------------|


Chorus:
G|-----5-------5-------5---7---9-|-------------------------------|
D|-------------------------------|-----7-------7-------7---9---5-|
A|-3-------3-------3-------------|-------------------------------|
E|-------------------------------|-5-------5-------5-------------|

G|-------------------------------|-------------------------------|
D|-----9-------9-------9---------|-----5-------5-------5---------|
A|-7-------7-------7-------------|-------------------------5---5-|
E|------------------------10--10-|-3-------3-------3-------------|

Instrumental:
Silent x8 bars
G|-------------------------------|-----------------------------------|
D|-------4---5-----------7-------|----------------------14---12------|
A|---5---------------------------|---3---3---5---7----------------14-| x2
E|---------------5-5---------5-7-|-----------------------------------|


Verse 2:
G|-------------------------------|-----------------------------------|
D|-------4---5-----------7-------|----------------------14---12------|
A|---5---------------------------|---3---3---5---7----------------14-| x3
E|---------------5-5---------5-7-|-----------------------------------|

G|-------------------------------|-----------------------------------|
D|-------4---5-----------7---5-7-|-----------------------------------|
A|---5---------------------------|---5---5---5---5---5---5---5---5---|
E|---------------5-5-------------|-----------------------------------|


Chorus:
G|-----5-------5-------5---7---9-|-------------------------------|
D|-------------------------------|-----7-------7-------7---9---5-|
A|-3-------3-------3-------------|-------------------------------|
E|-------------------------------|-5-------5-------5-------------|

G|-------------------------------|-------------------------------|
D|-----9-------9-------9---------|-----5-------5-------5---------|
A|-7-------7-------7-------------|-------------------------5---5-|
E|------------------------10--10-|-3-------3-------3-------------|


Bridge:
G|------------------------|------------------------|
D|------------------------|------------------------|
A|-3--3--3--3--3--3--3--3-|-7--7--7--7--7--7--7--7-|
E|------------------------|------------------------|

G|------------------------|------------------------|
D|------------------------|------------------------|
A|-5--5--5--5--5--5--5--5-|------------------------|
E|------------------------|-5--5--5--5--5--5--5--5-|

second time:
G|------------------------|------------------------|
D|------------------------|------------------------|
A|-5--5--5--5--5--5--5--5-|------------------------|
E|------------------------|------------------------|


Chorus + Outro:
G|-----5-------5-------5---7---9-|-------------------------------|
D|-------------------------------|-----7-------7-------7---9---5-|
A|-3-------3-------3-------------|-------------------------------|
E|-------------------------------|-5-------5-------5-------------|
                                  (final time)
G|-------------------------------|-------------------------------|-----|
D|-----9-------9-------9---------|-----5-------5-------5---------|-----|
A|-7-------7-------7-------------|-------------------------5---5-|--3--|
E|------------------------10--10-|-3-------3-------3-------------|-----|

************************************

| (final time)

************************************

Almost there ...

Sign in to get your own page with links to favourite songs and more. You are just one click away...

Login with Facebook Login with Google