Log in

One click and you are in

Login with Facebook Login with Google

Why sign up and log in

Guitar Tabs Explorer
Two Door Cinema Club bass tabs for Something good can work

Something Good Can Work bass tab - Two Door Cinema Club

Two Door Cinema Club bass tabs for Something good can work

Bass tabs

Tuning: Standard


 0:24 - Intro
G|-----------10-12-10-|--------------------|--------------12-14-12-|-(12)--------779-|
D|--------------------|-----------10-12-10-|-----------------------|-0---0-0---------|
A|-8---8-8------------|--------------------|-10---10-10------------|-----------------|
E|--------------------|-8---8-8------------|-----------------------|-----------------|
  1 * 2 * 3 * 4 *  1 * 2 * 3 * 4 *  1 * 2 * 3 * 4 *  1 * 2 * 3 * 4 *

G|-----------10-12-10-|--------------------|--------------12-14-12-|-(12)--------779-|
D|--------------------|-----------10-12-10-|-----------------------|-0---0-0---------|
A|-8---8-8------------|--------------------|-10---10-10------------|-----------------|
E|--------------------|-8---8-8------------|-----------------------|-----------------|
  1 * 2 * 3 * 4 *  1 * 2 * 3 * 4 *  1 * 2 * 3 * 4 *  1 * 2 * 3 * 4 *

 0:40 - 1st Verse
G|-----------------|-----------------|---------------------|-----------------|
D|-----------------|-----------------|---------------------|-----------------|
A|-----------------|-----------------|---------------------|-----------------|
E|-1---1---1---1/--|-5---5---5---5/--|-10---10---10---10\--|-6---6---6---6\--|
  1 * 2 * 3 * 4 *  1 * 2 * 3 * 4 *  1 * 2 * 3 * 4 *  1 * 2 * 3 * 4 *

G|-----------------|-----------------|---------------------|-----------------|
D|-----------------|-----------------|---------------------|-----------------|
A|-----------------|-----------------|---------------------|-----------------|
E|-1---1---1---1/--|-5---5---5---5/--|-10---10---10---10\--|-6---6---6---6/--|
  1 * 2 * 3 * 4 *  1 * 2 * 3 * 4 *  1 * 2 * 3 * 4 *  1 * 2 * 3 * 4 *

 0:56 - Chorus
G|-----------10-12-10-|--------------------|--------------12-14-12-|-(12)--------779-|
D|--------------------|-----------10-12-10-|-----------------------|-0---0-0---------|
A|-8---8-8------------|--------------------|-10---10-10------------|-----------------|
E|--------------------|-8---8-8------------|-----------------------|-----------------|
  1 * 2 * 3 * 4 *  1 * 2 * 3 * 4 *  1 * 2 * 3 * 4 *  1 * 2 * 3 * 4 *

G|-----------10-12-10-|--------------------|--------------12-14-12-|-(12)--------779-|
D|--------------------|-----------10-12-10-|-----------------------|-0---0-0---------|
A|-8---8-8------------|--------------------|-10---10-10------------|-----------------|
E|--------------------|-8---8-8------------|-----------------------|-----------------|
  1 * 2 * 3 * 4 *  1 * 2 * 3 * 4 *  1 * 2 * 3 * 4 *  1 * 2 * 3 * 4 *

 1:12 - 2nd Verse
G|-----------------|-----------------|---------------------|-----------------|
D|-----------------|-----------------|---------------------|-----------------|
A|-----------------|-----------------|---------------------|-----------------|
E|-1---1---1---1/--|-5---5---5---5/--|-10---10---10---10\--|-6---6---6---6\--|
  1 * 2 * 3 * 4 *  1 * 2 * 3 * 4 *  1 * 2 * 3 * 4 *  1 * 2 * 3 * 4 *

G|-----------------|-----------------|---------------------|-----------------|
D|-----------------|-----------------|---------------------|-----------------|
A|-----------------|-----------------|---------------------|-----------------|
E|-1---1---1---1/--|-5---5---5---5/--|-10---10---10---10\--|-6---6---6---6/--|
  1 * 2 * 3 * 4 *  1 * 2 * 3 * 4 *  1 * 2 * 3 * 4 *  1 * 2 * 3 * 4 *

 1:28 - Chorus
G|-----------10-12-10-|--------------------|--------------12-14-12-|-(12)--------779-|
D|--------------------|-----------10-12-10-|-----------------------|-0---0-0---------|
A|-8---8-8------------|--------------------|-10---10-10------------|-----------------|
E|--------------------|-8---8-8------------|-----------------------|-----------------|
  1 * 2 * 3 * 4 *  1 * 2 * 3 * 4 *  1 * 2 * 3 * 4 *  1 * 2 * 3 * 4 *

G|-----------10-12-10-|--------------------|--------------12-14-12-|-(12)--------779-|
D|--------------------|-----------10-12-10-|-----------------------|-0---0-0---------|
A|-8---8-8------------|--------------------|-10---10-10------------|-----------------|
E|--------------------|-8---8-8------------|-----------------------|-----------------|
  1 * 2 * 3 * 4 *  1 * 2 * 3 * 4 *  1 * 2 * 3 * 4 *  1 * 2 * 3 * 4 *

 1:44 - Interlude
G|-----------------|-----------------|-------------------------|-----------------|
D|-----------------|-----------------|-------------------------|-----------------|
A|-8-8-8-8-8-8-8-8-|-----------------|-10-10-10-10-10-10-12-10-|-5-5-5-5-5-5-7-77|
E|-----------------|-8-8-8-8-8-8-8-8-|-------------------------|-----------------|
  1 * 2 * 3 * 4 *  1 * 2 * 3 * 4 *  1 * 2 * 3 * 4 *  1 * 2 * 3 * 4 *

G|-----------------|-----------------|-------------------------|-----------------|
D|-----------------|-----------------|-------------------------|-----------------|
A|-8-8-8-8-8-8-8-8-|-----------------|-10-10-10-10-10-10-12-10-|-5-5-5-5-5-------|
E|-----------------|-8-8-8-8-8-8-8-8-|-------------------------|-----------------|
  1 * 2 * 3 * 4 *  1 * 2 * 3 * 4 *  1 * 2 * 3 * 4 *  1 * 2 * 3 * 4 *

 2:00 - Chorus/Outro
G|-----------10-12-10-|--------------------|--------------12-14-12-|-(12)--------779-|
D|--------------------|-----------10-12-10-|-----------------------|-0---0-0---------|
A|-8---8-8------------|--------------------|-10---10-10------------|-----------------|
E|--------------------|-8---8-8------------|-----------------------|-----------------|
  1 * 2 * 3 * 4 *  1 * 2 * 3 * 4 *  1 * 2 * 3 * 4 *  1 * 2 * 3 * 4 *

G|-----------10-12-10-|--------------------|--------------12-14-12-|-(12)--------779-|
D|--------------------|-----------10-12-10-|-----------------------|-0---0-0---------|
A|-8---8-8------------|--------------------|-10---10-10------------|-----------------|
E|--------------------|-8---8-8------------|-----------------------|-----------------|
  1 * 2 * 3 * 4 *  1 * 2 * 3 * 4 *  1 * 2 * 3 * 4 *  1 * 2 * 3 * 4 *

G|-----------10-12-10-|--------------------|--------------12-14-12-|-(12)--------779-|
D|--------------------|-----------10-12-10-|-----------------------|-0---0-0---------|
A|-8---8-8------------|--------------------|-10---10-10------------|-----------------|
E|--------------------|-8---8-8------------|-----------------------|-----------------|
  1 * 2 * 3 * 4 *  1 * 2 * 3 * 4 *  1 * 2 * 3 * 4 *  1 * 2 * 3 * 4 *

G|-----------10-12-10-|--------------------|--------------12-14-12-|-(12)--------779-|
D|--------------------|-----------10-12-10-|-----------------------|-0---0-0---------|
A|-8---8-8------------|--------------------|-10---10-10------------|-----------------|
E|--------------------|-8---8-8------------|-----------------------|-----------------|
  1 * 2 * 3 * 4 *  1 * 2 * 3 * 4 *  1 * 2 * 3 * 4 *  1 * 2 * 3 * 4 *

G|-----------------|-----------------|
D|-----------------|-----------------|
A|-8---------------|-(8)-------------|
E|-----------------|-----------------|
  1 * 2 * 3 * 4 *  1 * 2 * 3 * 4 *

Almost there ...

Sign in to get your own page with links to favourite songs and more. You are just one click away...

Login with Facebook Login with Google