Log in

One click and you are in

Login with Facebook Login with Google

Why sign up and log in

Guitar Tabs Explorer
Two Door Cinema Club bass tabs for Someday

Bass tabs

-------------------------------------------------------------------------------
              TDCC - Someday Bass Tab
-------------------------------------------------------------------------------
Tuning: Standard

G|------------------------------------------------------------------2-2-5-| -|
D|----------------------------------------------------------------2-------| |
A|-12-12-12--12-12--12--12-12--12-12-12-12-\3-3-3--3-3--3--3-3-3----------| |
E|------------------------------------------------------------------------| |
                                       |-x2
G|---------------------------7--------------------------------|       |
D|--------------------10-7-7---5-5--5-5--5--10-10-10----------|       |
A|-8-8--8-8--8--8-8-8--------------------------------7-7-10-7-|       |
E|------------------------------------------------------------|       -|

G|--------------------------------------------------------------------|
D|----------------------------------------------------------5h7-5-----|
A|----------------------------------------------------------------7-5-|
E|-5-5-5-5-5-5-5-5-5-5-5-5-5-5-5-5-5-5-5-5-5-5-5-5-5-5-5-5------------|

G|--------------------------------------------------------------------|
D|--------------------------------------------------------------------|
A|-7-7-7--7-7-7--8-8-8--8-8-8--12-12-12--12-12-12--12-12-12--12-12-12-|
E|--------------------------------------------------------------------| x2

G|---------------------------------------------------------------|
D|---------------------------------------------------------------|
A|-7-7-7--7-7-7--8-8-8--8-8-8--3-3-3--3-3-3--12-12-12--12-12-12--|
E|---------------------------------------------------------------|

G|-------------------------------------------------------------------------------------------|
D|-------------------------------------------------------------------------------------------|
A|-10-10-10-10-10-10-10-10-10-10-10-10-10-10-10-10-12-10-10-10-12-10-10-10-12-10-10-10-12-10-|
E|-------------------------------------------------------------------------------------------|

G|------------------------------------------------------------------2-2-5-| -|
D|----------------------------------------------------------------2-------| |
A|-12-12-12--12-12--12--12-12--12-12-12-12-\3-3-3--3-3--3--3-3-3----------| |
E|------------------------------------------------------------------------| |
                                       |-x2
G|---------------------------7--------------------------------|       |
D|--------------------10-7-7---5-5--5-5--5--10-10-10----------|       |
A|-8-8--8-8--8--8-8-8--------------------------------7-7-10-7-|       |
E|------------------------------------------------------------|       -|


G|--------------------------------------------------------------------|
D|----------------------------------------------------------5h7-5-----|
A|----------------------------------------------------------------7-5-|
E|-5-5-5-5-5-5-5-5-5-5-5-5-5-5-5-5-5-5-5-5-5-5-5-5-5-5-5-5------------|

G|--------------------------------------------------------------------|
D|--------------------------------------------------------------------|
A|-7-7-7--7-7-7--8-8-8--8-8-8--12-12-12--12-12-12--12-12-12--12-12-12-|
E|--------------------------------------------------------------------| x2

G|---------------------------------------------------------------|
D|---------------------------------------------------------------|
A|-7-7-7--7-7-7--8-8-8--8-8-8--3-3-3--3-3-3--12-12-12--12-12-12--|
E|---------------------------------------------------------------|

G|-------------------------------------------------------------------------------------------|
D|-------------------------------------------------------------------------------------------|
A|-10-10-10-10-10-10-10-10-10-10-10-10-10-10-10-10-12-10-10-10-12-10-10-10-12-10-10-10-12-10-|
E|-------------------------------------------------------------------------------------------|


G|--------------------------------------------------------------------2-2-5-| -|
D|------------------------------------------------------------------2-------| |
A|-12-12-12-12--12-12--12--12-12--12-12-12-12-\3-3-3--3-3--3--3-3-3---------| |
E|--------------------------------------------------------------------------| |
                                        |-x2
G|---------------------------7--------------------------------|        |
D|--------------------10-7-7---5-5--5-5--5--10-10-10----------|        |
A|-8-8--8-8--8--8-8-8--------------------------------7-7-10-7-|        |
E|------------------------------------------------------------|        -|


G|----------------------------------------------------------------|
D|----------------------------------------------------------------|
A|-------------------------------------------------------------5/-|
E|-5-5-5-5-5-5-5-5-5-5-5-5-5-5-5-5-5-5-5-5-5-5-5-5-5-5-5-5-5-5----|

G|----|
D|----|
A|-12-|
E|----| (x48)

G|-----------------------------------------------------------|
D|-----------------------------------------------------------|
A|-8--8--8-8-10--5--5--5-5-7--12--12--12--12--12--12--12--12-|
E|-----------------------------------------------------------|

G|-----------------------------------------------------------|
D|-----------------------------------------------------------|
A|-8--8--8-8-10--5--5--5-5-7--12--12--12--12--12\------------|
E|--------------------------------------------------------2/-|


G|-----------------------------------------------------------|
D|-----------------------------------------------------------|
A|-8--8--8-8-10--5--5--5-5-7--12--12--12--12--12--12--12--12-|
E|-----------------------------------------------------------|


G|--------------------------------------------------------------------|
D|--------------------------------------------------------------------|
A|-8--8--8-8-10--5--5--5-5-7--12--12--12--12--12-12-12-12-12-12-12-12-|
E|--------------------------------------------------------------------|


G|----------------------------------------------------------------------------|
D|----------------------------------------------------------------------------|
A|-8--8--8-8-10--5--5--5-5-7--12-12-12-12-12-12-12-12-15-15-15-15-15-15-15-15-|
E|----------------------------------------------------------------------------|

G|---------------------------------------------------------------------------------------|
D|---------------------------------------------------------------------------------------|
A|-8-8-8-8-8-8-8-8-17-17-17-17-17-17-17-17-12-12-12-12-12-12-12-12-12-12-12-12-10-10-10\-|
E|---------------------------------------------------------------------------------------|


| / slide up
| \ slide down
| h hammer-on
| p pull-off
| ~ vibrato
| + harmonic
| x Mute note

Almost there ...

Sign in to get your own page with links to favourite songs and more. You are just one click away...

Login with Facebook Login with Google