Log in

One click and you are in

Login with Facebook Login with Google

Why sign up and log in

Guitar Tabs Explorer
Two Door Cinema Club bass tabs for Gasoline

Bass tabs

Intro
G|-------------------------------------------------------|
D|-------------------------------------------------------|
A|---5--5----5-----5--5----5-----5--5----5----5--5----5--|
E|-------------------------------------------------------|
Verse x4
G|-----------------------------------------------------|
D|-----------------------------------------------------|
A|---5--5----5-----5--5----5----------------5--5----5--|
E|-------------------------------6--6---3--------------|


Chorus x4
G|-------------------------------------------|
D|-------------------------------------------|
A|---5-5-0-5-3-------5------------0-5-3-5-0--|
E|-------------3-5-6---6-6-5-5-3-------------|


Verse x2
G|-----------------------------------------------------|
D|-----------------------------------------------------|
A|---5--5----5-----5--5----5----------------5--5----5--|
E|-------------------------------6--6---3--------------|


Chorus/Solo/Outro
G|-----------------------------------------------------|
D|-----------------------------------------------------|
A|---5-5-0-5-3-------5------------0-5-3-5-0------------|
E|-------------3-5-6---6-6-5-5-3-----------------------|

My first tab but pretty sure its at least 99% right.

Almost there ...

Sign in to get your own page with links to favourite songs and more. You are just one click away...

Login with Facebook Login with Google