Log in

One click and you are in

Login with Facebook Login with Google

Why sign up and log in

Guitar Tabs Explorer
Two Door Cinema Club bass tabs for Cigarettes in the theatre

Cigarettes In The Theatre bass tab - Two Door Cinema Club

Two Door Cinema Club bass tabs for Cigarettes in the theatre

Bass tabs

INTRO (start at 0.15)

G--------------------------------|   x3
D---------55---------------------|
A------------77--33-33-3--33-55--|
E-55-55-5------------------------|

G--------------------------|   x1
D---------55---------------|
A------------77--33-33-3---|
E-55-55-5------------------|
CHORUS

G-------------------5-5-----------------------------------|  x2
D---------5-------------5-2------------5-2--------5-2-----|
A------------7-5-3-----------5-------------------------5--|
E-5-5---------------------------3-3---------33-3----------|



VERSE 1

G------------------------------------|    x2
D------------------------------------|
A----------------------------7-7-77-7|
E-5-5-55-78-8-8-8-8-3-3-30-3---------|


VERSE 2

G------------------------------------|	   x2
D------------------------------------|
A-77-77-77-777991010-33-33-33-33-3235|
E------------------------------------|

G------------------------------------|
D------------------------------------|
A------------------55-55-5555553333--|
E-33-33-33-33-3333-------------------|

REPEAT CHORUS x2

REPEAT VERSE 1 x2

REPEAT VERSE 2 x2

REPEAT CHORUS X2

PAUSE AT 2.20


BREAK AT 2.38

G------------------------------------|  x8
D------------------------------------|
A-33-33-33-33-3355-------------------|
E------------------33-33-33-33-3355--|

END

G-----------------------------|
D-----------------------------|
A---3-2-0---3----3-2-0----3-3-|
E-0-------0----0-------0------|

Almost there ...

Sign in to get your own page with links to favourite songs and more. You are just one click away...

Login with Facebook Login with Google