Log in

One click and you are in

Login with Facebook Login with Google

Why sign up and log in

Guitar Tabs Explorer
Two Another bass tabs for Keeping me under

Bass tabs

Tuning: Standard (E A D G)

8 bar rest:


Intro:

G||------------------------------------------------------|
D||-----7---7/9-----7/9\7-------12---12-12\7-7-----------|
A||-------9-------9-------9--------------------5/7-5-----|
E||-7-----------------------10-----------------------7-5-|

G|------------------------------------------------------||
D|-----4---2/4----------------9---7/9-------------------||
A|-------4----------------------9----------7/9\7--------|| 2x
E|-2-------------2-7/9-7/9-7-------------0-------7------||
Verse A:

G|----------------------------------------------------|
D|-----------5-7-7-5---7-7\---------------------------|
A|-5--5--5-----------7-----7--0-----5---7---7-5-----7-|
E|--------------------------------7---7-----------7---|

G|------------------------------------|
D|--/11------9---11---9-9-7---9-9-7---|
A|-9----12------------------9-------9-|
E|---------7--/9----------------------|

G|----------------------------------------------------|
D|-----------5-7-7-5---7-7\---------------------------|
A|-5--5--5-----------7-----7--0-----9---7---7-5-----7-|
E|--------------------------------7---7-----------7---|

G|--------------------------------------|
D|--/11------9-----11------12-------14\-|
A|-9----12------------------------------|
E|---------7---7/9----9/10----10/12-----|

8 bar rest:

Intro:

G||------------------------------------------------------|
D||-----7---7/9-----7/9\7-------12---12-12\7-7-----------|
A||-------9-------9-------9--------------------5/7-5-----|
E||-7-----------------------10-----------------------7-5-|

G|------------------------------------------------------||
D|-----4---2/4----------------9---7/9-------------------||
A|-------4----------------------9----------7/9\7--------|| 2x
E|-2-------------2-7/9-7/9-7-------------0-------7------||


Verse A:

G||----------------------------------------------------|
D||-----------5-7-7-5---7-7\---------------------------|
A||-5--5--5-----------7-----7--0-----5---7---7-5-----7-|
E||--------------------------------7---7-----------7---|

G|------------------------------------|
D|--/11------9---11---9-9-7---9-9-7---|
A|-9----12------------------9-------9-|
E|---------7---9----------------------|

G|----------------------------------------------------|
D|-----------5-7-7-5---7-7\---------------------------|
A|-5--5--5-----------7-----7--0-----9---7---7-5-----7-|
E|--------------------------------7---7-----------7---|

G|-------------------------------------||
D|--/11------9-----11------12-------14-||
A|-9----12-----------------------------|| 2x
E|---------7---7/9----9/10----10/12----||


Verse B:

G|------------------------------------------------------|
D|-------------5-7-7-5---7-7\---------------------------|
A|-5--5--5-------------7-----7--0-----5---7---7-5-----7-|
E|----------------------------------7---7-----------7---|

G|------------------------------------|
D|--/11------9---11---9-9-7---9-9-7---|
A|-9----12------------------9-------9-|
E|---------7---9----------------------|

G|--------------------------------------|
D|-----------5-7-7-5---7-7\-------------|
A|-5--5--5-----------7-----7--0-----5-7-|
E|--------------------------------7-----|

G|-------------------------------------|
D|------------------9---11----12----14-|
A|-------------------------------------|
E|0---2---3---5---7---9----10----12----|


Verse A:

G||----------------------------------------------------|
D||-----------5-7-7-5---7-7\---------------------------|
A||-5--5--5-----------7-----7--0-----5---7---7-5-----7-|
E||--------------------------------7---7-----------7---|

G|------------------------------------|
D|--/11------9---11---9-9-7---9-9-7---|
A|-9----12------------------9-------9-|
E|---------7---9----------------------|

G|----------------------------------------------------|
D|-----------5-7-7-5---7-7\---------------------------|
A|-5--5--5-----------7-----7--0-----5---7---7-5-----7-|
E|--------------------------------7---7-----------7---|

G|-------------------------------------||
D|--/11------9-----11------12-------14-||
A|-9----12-----------------------------|| 4x
E|---------7---7/9----9/10----10/12----||


************************************

| /  Slide up
| \  Slide down

************************************

Almost there ...

Sign in to get your own page with links to favourite songs and more. You are just one click away...

Login with Facebook Login with Google