Log in

One click and you are in

Login with Facebook Login with Google

Why sign up and log in

Guitar Tabs Explorer
Two And A Half bass tabs for I dont need to tell you

I Don't Need To Tell You bass tab by Two And A Half

Two And A Half bass tabs for I dont need to tell you

Bass tabs

G|----------------------------------------------------------------|
D|----------------------------------------------------------------| x5
A|------------2---0-------0-------------------2---0-------0-------|
E|0-------------------------------0-------------------------------|

G|----------------------------------------------------------------|
D|--------------------------------------------2---0-------0-------|
A|------------2---0-------0---------------------------------------|
E|0-------------------------------0-------------------------------|

0:27

G|----------------------------------------------------------------|
D|----------------------------------------------------------------|
A|--------------------------------0-----------0---0-------0-------|
E|3-----------3---3-------3---------------------------------------|

G|----------------------------------------------------------------|
D|----------------------------------------------------------------|
A|2-----------2---2---2---2---------------------------------------|
E|--------------------------------0-----------0---0-------0-------|

G|----------------------------------------------------------------|
D|----------------------------------------------------------------|
A|2-----------2---2---2---2-------3-----------3---3---------------|
E|----------------------------------------------------------------|

G|----------------------------------------------------------------|
D|----------------------------------------------------------------|
A|------------5-------------------------------2---0-------0-------|
E|3---------------3-------2-------0-------------------------------|

0:45

G|----------------------------------------------------------------|
D|----------------------------------------------------------------| x3
A|------------2---0-------0-------------------2---0-------0-------|
E|0-------------------------------0-------------------------------|

G|----------------------------------------------------------------|
D|--------------------------------------------2---0-------0-------|
A|------------2---0-------0---------------------------------------|
E|0-------------------------------0-------------------------------|

1:03

G|----------------------------------------------------------------|
D|----------------------------------------------------------------|
A|--------------------------------0-----------0---0-------0---0---|
E|3-----------3---3-------3---3-----------------------------------|

G|----------------------------------------------------------------|
D|----------------------------------------------------------------|
A|2-----------2---2---2---2---------------------------------------|
E|--------------------------------0-----------0---0---0---0-------|

G|----------------------------------------------------------------|
D|----------------------------------------------------------------|
A|2-----------2---2---2---2-------3-----------3---3---------------|
E|----------------------------------------------------------------|

G|----------------------------------------------------------------|
D|----------------------------------------------------------------|
A|----------------5-------5-----------------------5---------------|
E|3-----------3-------------------3-----------3-----------3-------|

1:21

G|----------------------------------------------------------------|
D|------------2---0-------0---------------------------------------|
A|0-------------------------------------------5---5-------5-------|
E|--------------------------------3-------------------------------|

G|----------------------------------------------------------------|
D|------------2---0-------0-------------------2---0---------------|
A|0---------------------------------------------------------------|
E|--------------------------------3-----------------------3-------|

G|----------------------------------------------------------------|
D|------------4-------------------2-------------------------------|
A|2---------------2-------2-------------------2-------------------|
E|------------------------------------------------0-------0-------|

G|----------------------------------------------------------------|
D|------------2---------------------------------------------------|
A|0---------------0-------0-------2---------------2-------2-------|
E|--------------------------------------------2-------------------|

1:39

G|----------------------------------------------------------------|
D|----------------------------------------------------------------| x3
A|------------2---0-------0-------------------2---0-------0-------|
E|0-------------------------------0-------------------------------|

G|----------------------------------------------------------------|
D|--------------------------------------------2---0-------0-------|
A|------------2---0-------0---------------------------------------|
E|0-------------------------------0-------------------------------|

1:57

G|----------------------------------------------------------------|
D|----------------------------------------------------------------|
A|--------------------------------0-----------0---0-------0-------|
E|3-----------3---3-------3---------------------------------------|

G|----------------------------------------------------------------|
D|----------------------------------------------------------------|
A|2-----------2---2-------2---2-----------------------------------|
E|--------------------------------0-----------0---0---0---0-------|

G|----------------------------------------------------------------|
D|----------------------------------------------------------------|
A|2-----------2---2---2---2-------3-----------3---3---------------|
E|----------------------------------------------------------------|

G|----------------------------------------------------------------|
D|----------------------------------------------------------------|
A|----------------5-------5---------------------------------------|
E|3-----------3-------------------3---3---3---3---3---3---3---3---|

G|--------------------------------|
D|--------------------------------|
A|----------------5---5---5---5---|
E|5---5---5---5-------------------|

2:18

G|----------------------------------------------------------------|
D|----------------------------------------------------------------|
A|--------------------------------0-----------0---0-------0-------|
E|3-----------3---3---3-------3-----------------------------------|

G|----------------------------------------------------------------|
D|----------------------------------------------------------------|
A|2-----------2---2---2---2---------------------------------------|
E|--------------------------------0-----------0---0---0---0-------|

G|----------------------------------------------------------------|
D|----------------------------------------------------------------|
A|2-----------2---2---2---2-------3-----------3---3---------------|
E|----------------------------------------------------------------|

G|----------------------------------------------------------------|
D|----------------------------------------------------------------|
A|------------5-----------------------------------5-------5-------|
E|3---------------3-------3-------5-----------5-------------------|

G|----------------------------------------------------------------|
D|----------------------------------------------------------------|
A|--------------------------------0-----------0---0-------0---0---|
E|3-----------3---3-------3---3-----------------------------------|

G|------------------------------------------------------------|
D|------------------------------------------------------------| fades out here.
A|2-----------2---2---2---2-----------------------------------|

Almost there ...

Sign in to get your own page with links to favourite songs and more. You are just one click away...

Login with Facebook Login with Google