Log in

One click and you are in

Login with Facebook Login with Google

Why sign up and log in

Guitar Tabs Explorer
Twister tabs for El juego de la vida

Guitar tabs

Es mi primer tab. espero que les agrade si tiene alguna
corrección mándemelo a mi correo.


e--------------0/1---1-------------------0/1---
b--------2--4-----------4--2--4----------------
g--1--3---------------------------3---1--------
d----------------------------------------------
a----------------------------------------------
E----------------------------------------------

Se repite dos veces y después entra bajo y batería.

Este es el requinto puede ser que tenga algunos errores,
pero así lo oigo.

e----------------------------------------
b------------7-9-7---9/7 -----------------
g--7-8-9-10---------------9---------------
d----------------------------------------
a----------------------------------------
E----------------------------------------

La parte rápida es más o menos así:

e---------------------7--------------
b------------7--9-10-----------------
g--7-8-9-10--

Other versions of El Juego De La Vida

El juego de la vidaChords

Almost there ...

Sign in to get your own page with links to favourite songs and more. You are just one click away...

Login with Facebook Login with Google