Log in

One click and you are in

Login with Facebook Login with Google

Why sign up and log in

Guitar Tabs Explorer
Twister chords for El juego de la vida

Guitar chords

Hola, es mi primera transcripcion espero que les agrade.

Empieza asi:

e ----------------------------------
b ----------------------------------
g -----7-9-9/11--11/9--7-9------9/11
d -7-9---------------------9-7------
a ----------------------------------
A chord diagramE MajorE ----------------------------------
e ----------------------------------
b ----------------------------------
g -----7-9-9/11--11/9--7-9------7/9-
d -7-9---------------------9-7------
a ----------------------------------
A chord diagramE MajorE ----------------------------------


Despues ya cuando pasa la intro pueden seguir con el bajo
hasta el coro, escuchen el ritmo:

e -----------------------------------------
b -----------------------------------------
g -----------------------------------------
d -----------------------------------------
a -----------------------------------------
A chord diagramE MajorE 0---0-0---0-3-3-3-5---0-0--0-0--0-3-3-3-5

Para el coro lo pueden acompaƱar con estos acordes:


              A chord diagramC majorC   A chord diagramC majorC   A chord diagramC majorC   A chord diagramC majorC    A chord diagramG+G
Y viven el amor como una fiesta

A chord diagramG+G  A chord diagramG+G  A chord diagramG+G  A chord diagramC majorC  A chord diagramC majorC  A chord diagramC majorC  A chord diagramC majorC  A chord diagramG+G  A chord diagramG+G  A chord diagramG+G  A chord diagramG+G
aunque alguna vez haga llorar.

      A chord diagramC majorC                      A chord diagramE MajorE
De su juventud, no se olvidaran jamas

    A chord diagramC majorC       A chord diagramG+G         A chord diagramFF      A chord diagramC majorC
locura, cordura, por igual...


Despues sigue el bajo y el coro otra ves. Escuchen la
canciĆ³n y agarraran el ritmo.

moteuchi_17@


Saludos Panos :P dedicado a CGG y LMOR

Other versions of El Juego De La Vida

El juego de la vidaTabs

Almost there ...

Sign in to get your own page with links to favourite songs and more. You are just one click away...

Login with Facebook Login with Google