Log in

One click and you are in

Login with Facebook Login with Google

Why sign up and log in

Guitar Tabs Explorer
Twin Cabins bass tabs for Swing lynn

Bass tabs

Tuning: Standard (E A D G)


Intro/Verse:

G|---------------------------------------------------------------------------|
D|---------------------------------------------------------------------------|
A|---------------------------------------------------------------------------|
E|-3-3--3-3-3--3-3-3--3-3-3--3-3-3--3-3-3--3-3-3--3-3-3----------------------|

G|---------------------------------------------------------------------------|
D|---------------------------------------------------------------------------| repeat until chorus
A|---------------------------------------------------------------------------|
E|3-5-5--5-5-5--5-5-5--5-5-7-5--2-2--2-2-2--2-2-2--2-2-2-2-------------------|

Chorus:

G|---------------------------------------------------------------------------|
D|---------------------------------------------------------------------------|
A|-5-5-5-5-5-----------5-5-5-5-5---------------------------------------------| play twice
E|-----------5-5-5-5-5-----------5-5-5-5-5--3-3--3-3-3--3-3-3--3-3-3-5-------|


Outro:

G|---------------------------------------------------------------------------|
D|---------------------------------------------------------------------------|
A|---------------------------------------------------------------------------|
E|-3-3--3-3-3--3-3-3--3-3-3--3-3-3--3-3-3--3-3-3--3-3-3----------------------|

G|---------------------------------------------------------------------------|
D|---------------------------------------------------------------------------| repeat until end
A|---------------------------------------------------------------------------|
E|3-5-5--5-5-5--5-5-5--5-5-7-5--2-2--2-2-2--2-2-2--2-2-2-2-------------------|

Add some slides and hammer ons to make it sound better

Almost there ...

Sign in to get your own page with links to favourite songs and more. You are just one click away...

Login with Facebook Login with Google