Log in

One click and you are in

Login with Facebook Login with Google

Why sign up and log in

Guitar Tabs Explorer
Civil Twilight bass tabs for Fire escape

Bass tabs

Civil Twilight - Fire Escape

Tabbed by: Artur A.

Tuning: standard

This is the entire song, several bits of it repeat many times but I think this format is the easiest to follow.
You have to listen to the song to get the exact rhythm down.

This is my cover I made after tabbing this song: https://www.youtube.com/watch v=A4sZYAiAIJI
Intro riff
G----------18--16----------------15--13---------------13--11------------------------------|
D------------------18--16----------------15--13---------------13--11-------9--11--9-------|
A------------------------------------------------------------------------------------11---|
E-----------------------------------------------------------------------------------------|


Verse 1
G-----------------------------------------------------------------------------------------|
D------13-13-13---9-11-9------------------------------------------------------------------|
A--11--------------------11--------6-6-6-6-6-6-6-6---9-9-9-9-9-9-9-9----------------------|
E-----------------------------------------------------------------------------------------| x2

G--------------------------------------------|
D--------------------------------------------|
A---6--6-6-6-6-6-6---9--9-9-9-9-9-9----------|
E--------------------------------------------|

G-----------------------------------------------------------------------------------------|
D-----------------------------------------------------------------------------------------|
A---6--6-6-6-6-6-6-9--9-9-9-9-9-9-11--11-11-11-11-11-11-11-11-11-11-11-11-11-11-----------|
E-----------------------------------------------------------------------------------------|

G------------------------------------------------------------------------------------------------|
D--------------------------------------------------------------------------13-13-13---9-11-9-----|
A----9--9-9-9-9-9-9-9-9-9-9-9-9-9-9-8--8-8-8-8-8-8-7----7-7-7-7-7-7----11---------------------11-|
E------------------------------------------------------------------------------------------------|

G--------------------------------------------|
D--------------------------------------------|
A---6--6-6-6-6-6-6---9--9-9-9-9-9-9----------|
E--------------------------------------------|

G-----------------------------------------------------------------------------------------|
D------13-13-13---9-11-9------------------------------------------------------------------|
A--11--------------------11--------6--6-6-6-6-6-6---9--9-9-9-9-9-9------------------------|
E-----------------------------------------------------------------------------------------|

G--------------------------------------------|
D--------------------------------------------|
A---6--6-6-6-6-6-6---9--9-9-9-9-9-9----------|
E--------------------------------------------|

G-----------------------------------------------------------------------------------------|
D-----------------------------------------------------------------------------------------|
A---6--6-6-6-6-6-6-9--9-9-9-9-9-9-11--11-11-11-11-11-11-11-11-11-11-11-11-11-11-----------|
E-----------------------------------------------------------------------------------------|

G----------------------------------------------------------------------|
D----------------------------------------------------------------------|
A----9--9-9-9-9-9-9-9-9-9-9-9-9-9-9-8--8-8-8-8-8-8-7--7-7-7-7-7-7------|
E----------------------------------------------------------------------|

G----------------------------------------------------|
D------13-13-13-13-13-13-13-----13-13-13-13-13-13-13-|
A---11-----------------------11----------------------|
E----------------------------------------------------|

Chorus 1
G----------------------------------------------------|
D----------------------------------------------------|
A----11-11-11-11-------------------------------------|
E------------------9-9-9-9---12-12-12-12----7-7-7-7--| x4


Verse 2 (similar, but shorter)
G-----------------------------------------------------------------------------------------|
D------13-13-13---9-11-9------------------------------------------------------------------|
A--11--------------------11--------6--6-6-6-6-6-6---9--9-9-9-9-9-9------------------------|
E-----------------------------------------------------------------------------------------| x2

G----------------------------------------------|
D----------------------------------------------|
A----------------------------------------------|
E--11--11-11-11-11-11-11---9--9-9-9-9-9-9------|

G-------------------------------------------------------------------------------------------------|
D-------------------------------------------------------------------------------------------------|
A-----------------------------------------------11--11-11-11-11-11-11-11-11-11-11-11-11-11-11-----|
E---11--11-11-11-11-11-11---9--9-9-9-9-9-9--------------------------------------------------------|

G----------------------------------------------------------------------|
D----------------------------------------------------------------------|
A----9--9-9-9-9-9-9-9-9-9-9-9-9-9-9-8--8-8-8-8-8-8-7--7-7-7-7-7-7------|
E----------------------------------------------------------------------|

G----------------------------------------------------|
D------13-13-13-13-13-13-13-----13-13-13-13-13-13-13-|
A---11-----------------------11----------------------|
E----------------------------------------------------|


Chorus 2
G----------------------------------------------------|
D----------------------------------------------------|
A----11-11-11-11-------------------------------------|
E------------------9-9-9-9---12-12-12-12----7-7-7-7--| x4


Bridge
G--------------------------------------------|
D--------------------------------------------|
A---9--9--9---9-11---------------------------|
E------------------9--9--9--0--9--11---------| x2

G--------------------------------------------|
D--------------------------------------------|
A---9--9--9---9-11---------------------------|
E--------------------------------------------|

G-------------------------------------|
D-------------------------------------|
A-------------------------------------|
E---12--11--9--7------12--11--9--7----| x4


Intro riff repeats with a different ending
G----------18--16----------------15--13---------------13--11------------------------------|
D------------------18--16----------------15--13---------------13--11-------9--11--9-------|
A------------------------------------------------------------------------------------11---|
E-----------------------------------------------------------------------------------------| x3

G----------18--16----------------15--13-----------------|
D------------------18--16----------------15--13---------|
A-------------------------------------------------------|
E-------------------------------------------------------|

G--------------------------------------------|
D--------------------------------------------|
A---6--6-6-6-6-6-6---9--9-9-9-9-9-9----------|
E--------------------------------------------|


Chorus 3
G----------------------------------------------------|
D----------------------------------------------------|
A----11-11-11-11-------------------------------------|
E------------------9-9-9-9---12-12-12-12----7-7-7-7--| x8


Outro
G-----------------------------------------------------------------------------------------|
D------13-13-13---9-11-9------------------------------------------------------------------|
A--11--------------------11---------------------------------------------------------------|
E----------------------------------11--11-11-11-11-11-11---9--9-9-9-9-9-9-----------------|

G-----------------------------------------------------------------------------------------|
D------13-13-13---9-11-9------------------------------------------------------------------|
A--11--------------------11--------6--6-6-6-6-6-6---9--9-9-9-9-9-9------------------------|
E-----------------------------------------------------------------------------------------| x3

G-----------------------------------------------------------------------------------------|
D-----------------------------------------------------------------------------------------|
A----------16--14----------------13--11---------------11--9-------------------------------|

Almost there ...

Sign in to get your own page with links to favourite songs and more. You are just one click away...

Login with Facebook Login with Google