Log in

One click and you are in

Login with Facebook Login with Google

Why sign up and log in

Guitar Tabs Explorer
Twice (트와이스) bass tabs for Dreams come true

Dreams Come True bass tab by Twice (트와이스)

Twice (트와이스) bass tabs for Dreams come true

Bass tabs

Intro 0:10 - 0:20:

G|---------------------------------------------------------------------------|
D|---------------------------------------------------------------------------|
A|-15\--1-1-1-1/-----5-5-5-5----3-3-3-3--------------------------------------|
E|---------------------------------------3-3-3-3-----------------------------|

Repeat 2x

☠☠ '15\' just for the start☠☠
Verse 1: IRENE 0:25 - 0:35:
G|---------------------------------------------------------------------------|
D|---------------------------------------------------------------------------|
A|-1\----1-1\----1/-5-5--5-5-----3\------------------------------------------|
E|---------------------------------------------------------------------------|


Verse 1: TZUYU 0:35 - 0:45:
G|---------------------------------------------------------------------------|
D|---------------------------------------------------------------------------|
A|-1\----1-1\----1/-5-5--3-3-------------------------------------------------|
E|---------------------------------------------------------------------------|


Chorus: SEULGI 0:45 - 0:55:
G|---------------------------------------------------------------------------|
D|---------------------------------------------------------------------------|
A|--------------------------------------3x8:--------------------------------|
E|1/15--15\-----3-x8:---5x8:--6x8:----------------------------------------|


Chorus: MOMO 0:55 - 1:06:
G|---------------------------------------------------------------------------|
D|---------------------------------------------------------------------------|
A|--------------------------------------3x8:----15\-------------------------|
E|-----3-x8:---5x8:--6x8:-------------------------------------------------|

Instrumental 1:06 - 1:37:

G|---------------------------------------------------------------------------|
D|---------------------------------------------------------------------------| Repeat 4x
A|---1-1-1-1/-----5-5-5-5\----3-3-3-3----------------------------------------|
E|--------------------------------------3-3-3-3------------------------------|


Verse 2: Joy 1:32 - 1:39 connects into seulgi:
*saying 1,2,3,4  helped me.*

G|---------------------------------------------------------------------------|
D|---------------------------------------------------------------------------|
A|-21/--1-x4:--0-x4:-------------------------------------------------------|
E|----------------------3-x8:---5x8:-----6-6-6-6---------------------------|


Verse 2: Seulgi 1:39 - 1:54:

G|----------------------------------------------------------------------------------|
D|----------------------------------------------------------------------------------|
A|---------0x8:---------------------0---0---0---0----------------------------------|
E|-6-6-6-6-------2x8:--5x8:-6x8:--------------------15/--------------------------|


Rap: CHAEYOUNG 1:55 - 2:04:
G|---------------------------------------------------------------------------|
D|---------------------------------------------------------------------------|
A|-1-1~----5-5~---3-3~------1-1~----5-5~---3-3-------------------------------|
E|---------------------3-3~--------------------------------------------------|


Chorus: IRENE 2:05 - 2:14:
G|---------------------------------------------------------------------------|
D|---------------------------------------------------------------------------|
A|--------------------------------------3x8:--------------------------------|
E|-----3-x8:---5x8:--6x8:-------------------------------------------------|


Chorus: CHAEYOUNG 2:14 - 2:25:
G|---------------------------------------------------------------------------|
D|---------------------------------------------------------------------------|
A|--------------------------------------3x8:----15\-------------------------|
E|-----3-x8:---5x8:--6x8:-------------------------------------------------|


Last Instrumental 2:25 - 2:45:

G|---------------------------------------------------------------------------|
D|---------------------------------------------------------------------------| Repeat 4x
A|---1-1-1-1/-----5-5-5-5\----3-3-3-3----------------------------------------|
E|--------------------------------------3-3-3-3------------------------------|


☠☠☠☠☠☠☠☠☠☠☠☠☠☠☠☠☠☠☠☠☠☠☠☠☠☠☠☠☠☠☠☠☠☠☠☠

| / Slide up
| \ Slide down
| ~ Vibrato


☠☠☠☠☠☠☠☠☠☠☠☠☠☠☠☠☠☠☠☠☠☠☠☠☠☠☠☠☠☠☠☠☠☠☠☠

Almost there ...

Sign in to get your own page with links to favourite songs and more. You are just one click away...

Login with Facebook Login with Google