Log in

One click and you are in

Login with Facebook Login with Google

Why sign up and log in

Guitar Tabs Explorer
Twenty One Pilots bass tabs for Shy away

Bass tabs

Tuning: Standard (E A D G)

🎸 Intro:

G|-------------------------|
D|-------------------------| x4 Silence
A|-------------------------|
E|-------------------------|
🎸 Verse 1:

G|-------------------------|------------------------------|
D|-------------------------|------------------------------|
A|8--8--8-8--8--8-8--8--8--|12--12--12--12--10--10--10--10|
E|-------------------------|------------------------------|

G|-------------------------|-----------------------------|
D|-------------------------|10--10--10-10--9--9-9--9--9--|
A|7--7--7-7--7--7-7--7--7--|-----------------------------|
E|-------------------------|-----------------------------|

G|-------------------------|------------------------------|
D|-------------------------|------------------------------|
A|8--8--8-8--8--8-8--8--8--|12--12--12--12--10--10--10--10|
E|-------------------------|------------------------------|

G|-------------------------|-----------------------------|
D|-------------------------|10--10--10-10--9--9-9--9--9--|
A|7--7--7-7--7--7-7--7--7--|-----------------------------|
E|-------------------------|-----------------------------|

🎸 Chorus:

G|-------------------------|----------------------|
D|-------------------------|----------------------|
A|8--8--8-8--8--8-8--8--8--|5--5--5--5--5--5--5--5|
E|-------------------------|----------------------|

G|----------------------------------|-------------------------|
D|----------------------------------|-------------------------|
A|12--12--12-12--12--12-12--12--12--|-------------------------|
E|----------------------------------|7--7--7-7--3--3-3--7--7--|

G|-------------------------|----------------------|
D|-------------------------|----------------------|
A|8--8--8-8--8--8-8--8--8--|5--5--5--5--5--5--5--5|
E|-------------------------|----------------------|

G|----------------------------------|-------------------------|
D|----------------------------------|-------------------------|
A|12--12--12-12--12--12-12--12--12--|-------------------------|
E|----------------------------------|7--7--7-7--3--3-3--7--7--|

🎸 Verse 2:

G|-------------------------|
D|-------------------------| x4 Silence
A|-------------------------|
E|-------------------------|

G|-------------------------|------------------------------|
D|-------------------------|------------------------------|
A|8--8--8-8--8--8-8--8--8--|12--12--12--12--10--10--10--10|
E|-------------------------|------------------------------|

G|-------------------------|-----------------------------|
D|-------------------------|10--10--10-10--9--9-9--9--9--|
A|7--7--7-7--7--7-7--7--7--|-----------------------------|
E|-------------------------|-----------------------------|

G|-------------------------|
D|-------------------------| x4 Silence
A|-------------------------|
E|-------------------------|

🎸 Chorus:

G|-------------------------|----------------------|
D|-------------------------|----------------------|
A|8--8--8-8--8--8-8--8--8--|5--5--5--5--5--5--5--5|
E|-------------------------|----------------------|

G|----------------------------------|-------------------------|
D|----------------------------------|-------------------------|
A|12--12--12-12--12--12-12--12--12--|-------------------------|
E|----------------------------------|7--7--7-7--3--3-3--7--7--|

G|-------------------------|----------------------|
D|-------------------------|----------------------|
A|8--8--8-8--8--8-8--8--8--|5--5--5--5--5--5--5--5|
E|-------------------------|----------------------|

G|----------------------------------|-------------------------|
D|----------------------------------|-------------------------|
A|12--12--12-12--12--12-12--12--12--|-------------------------|
E|----------------------------------|7--7--7-7--3--3-3--7--7--|

G|-------------------------|----------------------|
D|-------------------------|----------------------|
A|8--8--8-8--8--8-8--8--8--|5--5--5--5--5--5--5--5|
E|-------------------------|----------------------|

G|----------------------------------|-------------------------|
D|----------------------------------|-------------------------|
A|12--12--12-12--12--12-12--12--12--|-------------------------|
E|----------------------------------|7--7--7-7--3--3-3--7--7--|

G|-------------------------|----------------------|
D|-------------------------|----------------------|
A|8--8---------------------|5--5------------------|
E|-------------------------|----------------------|

G|----------------------------------|------------------------------|
D|----------------------------------|------------------------------|
A|12--12--12-12--12--12-12--12--12--|14--14--14--14--10--10--10--10|
E|----------------------------------|------------------------------|

G|-------------------------|
D|-------------------------|
A|-------------------------|
E|-------------------------|

G|-------------------------|----------------------|
D|-------------------------|----------------------|
A|8--8--8-8--8--8-8--8--8--|5--5--5--5--5--5--5--5|
E|-------------------------|----------------------|

G|----------------------------------|------------------------------|
D|----------------------------------|------------------------------|
A|12--12--12-12--12--12-12--12--12--|14--14--14--14--15--15--17--17|
E|----------------------------------|------------------------------|

G|-------------------------|----------------------|
D|-------------------------|----------------------|
A|8--8--8-8--8--8-8--8--8--|5--5--5--5--5--5--5--5|
E|-------------------------|----------------------|

G|----------------------------------|------------------------------|
D|----------------------------------|------------------------------|
A|12--12--12-12--12--12-12--12--12--|14--14--14--14--15--15--17--17|
E|----------------------------------|------------------------------|

G|-------------------------|----------------------|
D|-------------------------|----------------------|
A|8--8--8-8--8--8-8--8--8--|5--5--5--5--5--5--5--5|
E|-------------------------|----------------------|

G|----------------------------------|------------------------------|
D|----------------------------------|------------------------------|
A|12--12--12-12--12--12-12--12--12--|14--14--14--14--15--15--17--17|
E|----------------------------------|------------------------------|

🎸 Outro:

G|-----------------|----------10--|
D|--------14----9--|10----12------|
A|12--12-----------|--------------|
E|-----------------|--------------|

G|----------------------------------|------------------------------|
D|----------------------------------|------------------------------|
A|12--12--12-12--12--12-12--12--12--|14--14--14--14--15--15--17--17|
E|----------------------------------|------------------------------|

************************************

Almost there ...

Sign in to get your own page with links to favourite songs and more. You are just one click away...

Login with Facebook Login with Google