Log in

One click and you are in

Login with Facebook Login with Google

Why sign up and log in

Guitar Tabs Explorer
Twenty One Pilots bass tabs for No chances

Bass tabs

Tuning: Standard (E A D G)

Play Through Whole Song Except Chorus:
G|------------|
D|------------|
A|----3--0h2--|
E|-0----------|

G|------------|
D|------------|
A|----3--0h2--|
E|-0----------| Repeat Until Chorus


Chorus:
G|----------------|
D|-----5-5----4h5-|
A|-3-3----5-5-----|
E|----------------| Repeat A Few Times

Post Chorus:
G|------------------|
D|------------------|
A|----------3--0h2--|
E|-3-3-2-0----------|

It Can Be Hard To Get Into The Rhythm At First But It Is Not That Hard To Figure Out :)


************************************

| h Hammer-on

************************************

Almost there ...

Sign in to get your own page with links to favourite songs and more. You are just one click away...

Login with Facebook Login with Google