Search tabs and chords

Browse bands and artists

A B C D E F G H I J K L M N O P Q R S T U V W X Y Z #

Log in

[ Register here | Forgot password ]

Guitar Tabs Explorer
Print

Bass tabs :

Nico And The Niners bass tab by Twenty One Pilots

  • Tuning: Standard
Key: Am


Key: A Minor

Tempo: 140 BPM

Intro: (0:00-0:20)

G|----------------|----------------|----------------|----------------|
D|----------------|----------------|----------------|----------------| x3
A|----------------|----------------|----------------|----------------|
E|----------------|----------------|----------------|----------------|
  1 & 2 & 3 & 4 &  1 & 2 & 3 & 4 &  1 & 2 & 3 & 4 &  1 & 2 & 3 & 4 &


Verse 1: (0:20-0:48)

G|-----------------|----------------|----------------|----------------|
D|--------------5h7|5---------------|----------------|----------------|
A|5-5--------------|--7-5-----------|5-5-------------|----------------|
E|-----------------|----------------|--------------0-|3-5-5-----------|
  1 & 2 & 3 & 4 &   1 & 2 & 3 & 4 &  1 & 2 & 3 & 4 &  1 & 2 & 3 & 4 &

G|-----------------|----------------|----------------|----------------|
D|--------------5h7|5---------------|----------------|----------------|
A|5-5--------------|--7-5-----------|5-5-------------|--------------3-|
E|-----------------|----------------|--------------0-|3-5-5-0-3-5-5---|
  1 & 2 & 3 & 4 &   1 & 2 & 3 & 4 &  1 & 2 & 3 & 4 &  1 & 2 & 3 & 4 &

G|----------------|----------------|----------------|----------------|
D|----------------|----------------|----------------|----------------|
A|5-5-------------|------------0h3-|5-5-------------|------------0h3-|
E|----------------|--5-5-----------|----------------|--5-5-----------|
  1 & 2 & 3 & 4 &  1 & 2 & 3 & 4 &  1 & 2 & 3 & 4 &  1 & 2 & 3 & 4 &

G|----------------|----------------|----------------|----------------|
D|----------------|----------------|----------------|----------------|
A|5-5-------------|------------0h3-|5-5-------------|----------------|
E|----------------|--5-5-----------|----------------|--5-5-----------|
  1 & 2 & 3 & 4 &  1 & 2 & 3 & 4 &  1 & 2 & 3 & 4 &  1 & 2 & 3 & 4 &

Chorus: (0:48-1:15)

G|----------------|----------------|----------------|----------------|
D|----------------|----------------|----------------|----------------| x2
A|----------------|----------------|----------------|----------------|
E|1/--------------|10\-------------|5---------------|3---------------|
  1 & 2 & 3 & 4 &  1 & 2 & 3 & 4 &  1 & 2 & 3 & 4 &  1 & 2 & 3 & 4 &

G|----------------|----------------|----------------|----------------|
D|----------------|----------------|----------------|----------------|
A|----------------|---5-5-----5----|----------------|----------------|
E|---1-1-----1----|----------------|---5-5-----5----|---3-3-----3----|
  1 & 2 & 3 & 4 &  1 & 2 & 3 & 4 &  1 & 2 & 3 & 4 &  1 & 2 & 3 & 4 &

G|----------------|----------------|----------------|----------------|
D|----------------|----------------|----------------|----------------|
A|----------------|---5-5-----5----|----------------|----------------|
E|---1-1-----1----|----------------|---5-5-----5----|----------------|
  1 & 2 & 3 & 4 &  1 & 2 & 3 & 4 &  1 & 2 & 3 & 4 &  1 & 2 & 3 & 4 &


Verse 2: (1:15-1:35)

G|-----------------|----------------|----------------|----------------|
D|--------------5h7|5---------------|----------------|----------------|
A|5-5--------------|--7-5-----------|5-5-------------|----------------|
E|-----------------|----------------|--------------0-|3-5-5-0-3-5-5---|
  1 & 2 & 3 & 4 &   1 & 2 & 3 & 4 &  1 & 2 & 3 & 4 &  1 & 2 & 3 & 4 &

G|-----------------|----------------|----------------|----------------|
D|-----------------|----------------|----------------|----------------| x2
A|-----------------|----------------|----------------|----------------|
E|-----------------|----------------|--------------0-|3-5-5-0-3-5-5---|
  1 & 2 & 3 & 4 &   1 & 2 & 3 & 4 &  1 & 2 & 3 & 4 &  1 & 2 & 3 & 4 &


Chorus: (1:35-2:03)

G|----------------|----------------|----------------|----------------|
D|----------------|----------------|----------------|----------------| x2
A|----------------|----------------|----------------|----------------|
E|1/--------------|10\-------------|5---------------|3---------------|
  1 & 2 & 3 & 4 &  1 & 2 & 3 & 4 &  1 & 2 & 3 & 4 &  1 & 2 & 3 & 4 &

G|----------------|----------------|----------------|----------------|
D|----------------|----------------|----------------|----------------|
A|----------------|---5-5-----5----|----------------|----------------|
E|---1-1-----1----|----------------|---5-5-----5----|---3-3-----3----|
  1 & 2 & 3 & 4 &  1 & 2 & 3 & 4 &  1 & 2 & 3 & 4 &  1 & 2 & 3 & 4 &

G|----------------|----------------|----------------|----------------|
D|----------------|----------------|----------------|----------------|
A|----------------|---5-5-----5----|----------------|----------------|
E|---1-1-----1----|----------------|---5-5-----5----|----------------|
  1 & 2 & 3 & 4 &  1 & 2 & 3 & 4 &  1 & 2 & 3 & 4 &  1 & 2 & 3 & 4 &


Post-chorus: (2:03-2:33)

G|----------------|----------------|----------------|----------------|
D|----------------|----------------|----------------|----------------| x4
A|----------------|----------------|----------------|----------------|
E|----------------|----------------|----------------|----------------|
  1 & 2 & 3 & 4 &  1 & 2 & 3 & 4 &  1 & 2 & 3 & 4 &  1 & 2 & 3 & 4 &


Bridge: (2:33-2:59)

G|----------------|----------------|----------------|----------------|
D|----------------|----------------|----------------|----------------| x2
A|----------------|----------------|----------------|----------------|
E|----------------|----------------|----------------|----------------|
  1 & 2 & 3 & 4 &  1 & 2 & 3 & 4 &  1 & 2 & 3 & 4 &  1 & 2 & 3 & 4 &

G|----------------|----------------|----------------|----------------|
D|----------------|----------------|----------------|----------------| x2
A|----------------|5---------------|----------------|----------------|
E|5---------------|----------------|1---------------|3---------------|
  1 & 2 & 3 & 4 &  1 & 2 & 3 & 4 &  1 & 2 & 3 & 4 &  1 & 2 & 3 & 4 &


Chorus: (2:59-3:40)

G|----------------|----------------|----------------|----------------|
D|----------------|----------------|----------------|----------------| x2
A|----------------|5---------------|----------------|----------------|
E|5---------------|----------------|1---------------|3---------------|
  1 & 2 & 3 & 4 &  1 & 2 & 3 & 4 &  1 & 2 & 3 & 4 &  1 & 2 & 3 & 4 &

G|-----------------|----------------|----------------|----------------|
D|--------------5h7|7---------------|----------------|----------------| x4
A|-----------------|--7-5-----------|----------------|--3-3-----------|
E|5-5-----5--------|----------------|1-1-----1/------|--------3-3-----|
  1 & 2 & 3 & 4 &   1 & 2 & 3 & 4 &  1 & 2 & 3 & 4 &  1 & 2 & 3 & 4 &


************************************

| /   Slide up
| \   Slide down
| h   Hammer-on
| p   Pull-off

************************************

Comments

Twenty One Pilots bass tabs for Nico and the niners