Log in

One click and you are in

Login with Facebook Login with Google

Why sign up and log in

Guitar Tabs Explorer
Twenty One Pilots bass tabs for Never take it

Bass tabs

Tuning: Standard (E A D G)


Intro, 0:09:

G|11-12-14-------------------------------------------------------------------|
D|------------------14----14-------12----12-----10---10-----9----------------|
A|---------------------------------------------------------------------------|
E|------------12-12----12----10-10----10----8-8----8----7-7------------------|

Verse 1, no bass:


Chorus, 0:33:

G|---------------------------------------------------------------------------|
D|---------------------------------------------------------------------------|
A|7-7-7-7-7-7-7-7--5-5-5-5-5-5-5-5-------------------7-7-7-7-7-7-7-7---------|
E|----------------------------------5-5-5-5-5-5-5-5--------------------------|

G|----------------9-7--------------------------------------------------------|
D|------------9-7------------------------------------------------------------|
A|7-7-7-7-7-7---------5-5-5-5-5-5-----------------7-7-7-7-7-7-7-7------------|
E|--------------------------------5-5-5-5-5-5-5-5----------------------------|


Intro again, 0:53:

G|11-12-14-------------------------------------------------------------------|
D|------------------14----14-------12----12-----10---10-----9----------------|
A|---------------------------------------------------------------------------|
E|------------12-12----12----10-10----10----8-8----8----7-7------------------|


Verse 2, 1:01:

G|---------------------------------------------------------------------------|
D|----------------------------------7-7-7-7-7-7-7-7--------------------------|
A|7-7-7-7-7-7-7-7--5-5-5-5-5-5-5-5-------------------------------------------|
E|---------------------------------------------------8-8-8-8--7-7-7-7--------|

G|---------------------------------------------------------------------------|
D|------------5---------------------7-7-7-7-7-7-7-7--------------------------|
A|7-7-7-7-7-7---7--5-5-5-5-5-5-5-5-------------------------------------------|
E|---------------------------------------------------8-8-8--7-7-7------------|


Chorus 2, 1:18:

G|---------------------------------------------------------------------------|
D|---------------------------------------------------------------------------|
A|7-7-7-7-7-7-7-6-5-5-5-5-5-5-5-5-----------------7-7-7-7-7-7-7-5------------|
E|--------------------------------7-5-5-5-5-5-5-5----------------------------|

G|---------------------------------------------------------------------------|
D|-----------------------------------------------12-12-12-14-----------------|
A|7-7-7--7-7-7-6-5-5-5--5-5-5------------------7-----------------------------|
E|----------------------------7-5-5-5--5-5-5-5-------------------------------|

G|---------------9-7-7--7-7-9-7----------------------------------------------|
D|-----------9-7----------------9-7-7--7-7-5-5-------------------------------|
A|7-7-7--7-7-----------------------------------7-7-7--7-7-7-7----------------|
E|---------------------------------------------------------------------------|

G|---------------9-7-7--7-7-9-7----------------------------------------------|
D|-----------9-7----------------9-7-7--7-7-5-5-------------------------------|
A|7-7-7--7-7-----------------------------------7-7-7--7-7-7-7----------------|
E|---------------------------------------------------------------------------|


Bridge, 1:50:

G|---------------------------------------------------------------------------|
D|---------------------------------------------------------------------------|
A|7-7--7--7--7-7-7--7--7--7-7-7--7--7--7-5-5--5--5--5------------------------|
E|----------------------------------------------------5-5--5--5--5-----------|

G|---------------------------------------------------------------------------|
D|---------------------------------------------------------------------------|
A|5-5--5-5-5-6-6-------------------------------------------------------------|
E|---------------------------------------------------------------------------|

G|---------------------------------------------------------------------------|
D|---------------------------------------------------------------------------|
A|7-7--7--7--7-5-5--5--5------------12-14-12-10------------------------------|
E|-----------------------5-5--5--5/-------------12---------------------------|

G|---------------------------------------------------------------------------|
D|---------------------------------------------------------------------------|
A|7-7--7--7--7-5-5--5--5--------------5-5--5-5-5-6-6-6-----------------------|
E|-----------------------5-5--5--5--5----------------------------------------|

G|---------------------------------------------------------------------------|
D|---------------------------------------------------------------------------|
A|7-7--7--7--7-5-5--5--5-----------------------------------------------------|
E|-----------------------5-5--5--5--5-7-5-3-0--------------------------------|


Guitar solo, 2:43:

G|----7----------------------------------------------------------------------|
D|7h9---9-7-9-7-5------------------------------------------------------------|
A|---------------------------------------------------------------------------|
E|---------------------------------------------------------------------------|

G|---------------9-7-7--7-7-9-7----------------------------------------------|
D|-----------9-7----------------9-7-7--7-7-5-5-------------------------------|
A|7-7-7--7-7-----------------------------------7-7-7--7-7-7-5----------------|
E|---------------------------------------------------------------------------|

G|----------------9-7-7-7-7-7-9-7--------------------------------------------|
D|------------9-7----------------9-7-7-7-7-7-5-5-----------------------------|
A|7-7-7-7-7-7------------------------------------7-7-7-7-7-7-5-6-------------|
E|---------------------------------------------------------------------------|


Chorus 3, 2:59:

G|---------------9-7-7--7-7-9-7----------------------------------------------|
D|-----------9-7----------------9-7-7--7-7-5-5-------------------------------|
A|7-7-7--7-7-----------------------------------7-7-7--7-7-7-5----------------|
E|---------------------------------------------------------------------------|

G|----------------9-7-7-7-7-7-9-7-------------------/7-7-7--9----------------|
D|------------9-7----------------9-7-7-7-7-7-5-5-----------------------------|
A|7-7-7-7-7-7------------------------------------7\--------------------------|
E|---------------------------------------------------------------------------|


************************************


| h  Hammer-on
| /  Slide up
| \  Slide down


************************************

Almost there ...

Sign in to get your own page with links to favourite songs and more. You are just one click away...

Login with Facebook Login with Google