Search tabs and chords

Browse bands and artists

A B C D E F G H I J K L M N O P Q R S T U V W X Y Z #

Log in

[ Register here | Forgot password ]

Guitar Tabs Explorer
Print

Bass tabs :

My Blood bass tab by Twenty One Pilots

  • Tuning: Standard
Verse 2
00:47
G|------------|------------|------------|------------|
D|------------|------------|------------|-------6h8--|
A|------/6----|------------|------/6----|---/6-------|
E|--1------4--|-----4/9-8--|--1------4--|------------|

G|------------|------------|------------|------------|
D|------------|------------|---------6--|-------6h8--|
A|------/6----|------------|------/6----|---/6-------|
E|--1------4--|-----4/9-8--|--1---------|------------|

G|------------|------------|------------|------------|
D|------------|------------|---------6--|------------|
A|------/6----|------------|------/6----|------------|
E|--1------4--|-----4/9-8--|--1---------|------------|


Chorus 1
G|-------------------------|-----------------------|
D|------------------11h13--|------------------6h8--|
A|-------------------------|-----------------------|
E|--6--8-9--11-9--9--------|--1--3-4--6-4--4-------|

G|-------------------------|-----------------------|
D|------------------11h13--|-----------------------|
A|-------------------------|-----------------------|
E|--6--8-9--11-9--9--------|--1--3-4--6-4--4-------|


Verse 3
G|------------|------------|------------|------------|
D|------------|------------|------------|-------6h8--|
A|------/6----|------------|------/6----|---/6-------|
E|--1------4--|-------4-4--|--1------4--|------------|

G|------------|------------|------------|------------|
D|------------|------------|------------|------------|
A|------/6----|------------|------/6----|------------|
E|--1------4--|-------4-4--|--1------4--|------------|


Chorus 2
G|--------------------------|------------------------|
D|-------------------11h13--|-------------------6h8--|
A|--------------------------|------------------------|
E|--6--8-9--11-9---9--------|--1--3-4--6-4---4-------|

G|--------------------------|------------------------|
D|-------------------11h13--|------------------------|
A|--------------------------|------------------------|
E|--6--8-9--11-9---9--------|--1--3-4--6-4---4-------|

G|--------------------------|------------------------|
D|-------------------11h13--|-------------------6h8--|
A|--------------------------|------------------------|
E|--6--8-9--11-9---9--------|--1--3-4--6-4---4-------|

G|--------------------------|------------------------|
D|-------------------11h13--|------------------------|
A|--------------------------|------------------------|
E|--6--8-9--11-9---9--------|--1--3-4--6-4---4-------|


Chorus 3
03:00
G|--------------------------|------------------------|
D|-------------------11h13--|-------------------6h8--|
A|--------------------------|------------------------|
E|--6--8-9--11-9---9--------|--1--3-4--6-4---4-------|

G|--------------------------|------------------------|
D|-------------------11h13--|------------------------|
A|--------------------------|------------------------|
E|--6--8-9--11-9---9--------|--1--3-4--6-4---4-------|


Outro

G|--------------------------|------------------------|
D|-------------------11h13--|-------------------6h8--|
A|--------------------------|------------------------|
E|--6--8-9--11-9---9--------|--1--3-4--6-4---4-------|

G|--------------------------|------------------------|
D|-------------------11h13--|-------------------6h8--|
A|--------------------------|------------------------|
E|--6--8-9--11-9---9--------|--1--3-4--6-4---4-------|

G|--------------------------|---------------|
D|-------------------11h13--|---------------|
A|--------------------------|---------------|
E|--6--8-9--11-9---9--------|--1--3-4-------|



************************************

| h   Hammer-on
| /   Slide up

************************************

Other versions of My Blood

- My blood (Ver. 2)Bass tabs

Comments

Twenty One Pilots bass tabs for My blood