Log in

One click and you are in

Login with Facebook Login with Google

Why sign up and log in

Guitar Tabs Explorer
Twenty One Pilots bass tabs for Mulberry street

Mulberry Street bass tab - Twenty One Pilots

Twenty One Pilots bass tabs for Mulberry street

Bass tabs

  • Difficulty: Beginner
Tuning: Standard (E A D G)

🎸 Intro:
G|------------------------------------------------------------|
D|------------------------------------------------------------| 2x
A|-----------------5--5--5------------------------------------|
E|--3--3--0-3--3----------5--5--3--3--0-3--3--2-7--5--5/7-----|
🎸 Verse:
G|------------------------------------------------------------|
D|------------------------------------------------------------| 2x
A|-----------------5--5--5------------------------------------|
E|--3--3--0-3--3----------5--5--3--3--0-3--3--2-7--5--5/7-----|


🎸 Chorus:
G|------------------------------------------------------------|
D|------------------------------------------------------------|
A|-----------------5--5--5------------------------------------|
E|------------------------5--5--3--3--0-3--3--2-7--5--5/7-----|

G|------------------------------------------------------------|
D|------------------------------------------------------------|
A|-----------------5--5--5------------------------------------|
E|--3--3--0-3--3----------5--5--3--3--0-3--3--2-7--5--5/7-----|


🎸 Verse 2:
G|---------------------------|
D|---------------------------|
A|-------5-------------------|
E|--3--------5---3---2-7--5--|

G|------------------------------------------------------------|
D|------------------------------------------------------------|
A|-----------------5--5--5------------------------------------|
E|--3--3--0-3--3----------5--5--3--3--0-3--3--2-7--5--5/7-----|

🎸 Chorus 2:
G|------------------------------------------------------------|
D|------------------------------------------------------------|
A|-----------------5--5--5------------------------------------|
E|------------------------5--5--3--3--0-3--3--2-7--5--5/7-----|

G|------------------------------------------------------------|
D|------------------------------------------------------------|
A|-----------------5--5--5------------------------------------|
E|--3--3--0-3--3----------5--5--3--3--0-3--3--2-7--5--5/7-----|

🎸 Bridge:

(no bridge for the piano part)

G|------------------------------------------------------------|
D|------------------------------------------------------------|
A|-----------------5--5--5----------------------5--5--5-------|
E|--3--3--0-3--3----------5--5--3--3--0-3--3-----------5--5---|

G|------------------------------------------------------------|
D|------------------------------------------------------------|
A|-----------------5--5--5------------------------------------|
E|--3--3--0-3--3----------5--5--3--3--0-3--3--2-7--5--5/7-----|


🎸 Chorus 3:
G|------------------------------------------------------------|
D|------------------------------------------------------------|
A|-----------------5--5--5------------------------------------|
E|------------------------5--5--3--3--0-3--3--2-7--5--5/7-----|

G|------------------------------------------------------------|
D|------------------------------------------------------------|
A|-----------------5--5--5------------------------------------|
E|--3--3--0-3--3----------5--5--3--3--0-3--3--2-7--5--5/7-----|

G|------------------------------------------------------------|
D|------------------------------------------------------------|
A|----------------7-5--5--5-----------------------------------|
E|--3--3--0-3-5-7-----------5--5--3--3--0-3--3--2--7--5--5/7--|

G|------------------------------------------------------------|
D|----------4-7-4---------------------------------9-7-4-------|
A|---------------7-5--5--5------------------------------7--5--|
E|--3--3--0----------------5--5--3--3--0--3--3--2-------------|

G|------------------------------------------------------------|
D|------------------------------------------------------------|
A|------------------------------------------------------------|
E|------------------------------3--3--0-3--3--2-7--5----------|


***********

| / Slide-up

***********

Almost there ...

Sign in to get your own page with links to favourite songs and more. You are just one click away...

Login with Facebook Login with Google