Log in

One click and you are in

Login with Facebook Login with Google

Why sign up and log in

Guitar Tabs Explorer
Twenty One Pilots bass tabs for Level of concern

Level Of Concern bass tab by Twenty One Pilots

Twenty One Pilots bass tabs for Level of concern

Bass tabs

Tuning: Standard (E A D G)


Verse 1:

  Panic on the brain...
G|---------------------------------------|
D|---------------------------------------|
A|-3----3--3----2--0----0--0----0--2-2---| x2
E|---------------------------------------|

Pre Chorus:

  Wonderin' would...
G|---------------------|
D|---------------------|
A|-3-------3----2--0---|
E|------3--------------|


Chorus:

Rest


Verse 2:

  Panic on the brain...
G|---------------------------------------|
D|---------------------------------------|
A|-3----3--3----2--0----0--0----0--2-2---| x2
E|---------------------------------------|


Pre Chorus:

  Wonderin' would...
G|-------------------------|
D|-------------------------|
A|-3-------3----2--0----0--|
E|------3------------------|


Chorus:

I told you...
G|---9----------------------14------12---------------------|
D|---------10--------------------------------12------------|
A|-7-------------3--2-0--12------10-----------------7--5---|
E|-------8-------------------------------10----------------|
                                                             x2
G|---9----------------------14------12---------------------|
D|---------10--------------------------------12------------|
A|-7-------------3--2-0--12------10-----------------2--0---|
E|-------8-------------------------------10--------------3-|



Bridge:

I told you...
G|--------------------------------|
D|--------------------------------|
A|-7---------------------------5--| x4
E|-------8-------------5---3------|

G|--------------------------------|
D|--------------------------------|
A|-0-------------------0----------|
E|--------------------------------|


Chorus:

I told you...
G|---9----------------------14------12---------------------|
D|---------10--------------------------------12------------|
A|-7-------------3--2-0--12------10-----------------7--5---|
E|-------8-------------------------------10----------------|
                                                             x2
G|---9----------------------14------12---------------------|
D|---------10--------------------------------12------------|
A|-7-------------3--2-0--12------10-----------------2--0---|
E|-------8-------------------------------10--------------3-|


Post Chorus:

Rest

Level of concern...
G|-----------------------------2---0----------|
D|-------------------------------------0------|
A|-------3---3-----3-3---3--------------------|
E|-0---0--------------------------------------|

↓ Add and view comments below ↓

What do you think about this song and these tabs?

Add your comments, questions, rant or a thumbs up below.

Almost there ...

Sign in to get your own page with links to favourite songs and more. You are just one click away...

Login with Facebook Login with Google