Search tabs and chords

Browse bands and artists

A B C D E F G H I J K L M N O P Q R S T U V W X Y Z #

Log in

[ Register here | Forgot password ]

Guitar Tabs Explorer
Print

Jumpsuit bass tab by Twenty One Pilots

Bass tabs

  • Tuning: Standard
  • Difficulty: Intermediate
Key: B


Intro: 0:07

G|----------------------------------------------------------------|
D|----------------------------------------------------------------|
A|------------------------------------9-9-------------------------|
E|-10-7-7-7-10-2-2---7-7-5h7-7-7-9h12-----------------------------| x4


Verse: 0:37

G|----------------------------------------------------------------|
D|----------------------------------------------------------------|
A|----------------------------------------------------------------|
E|-3~-/14\7~-5~-3~-/14\7~-5~-3~--3--3-3--3--3-2--7--7-7--7--7-5---|

G|----------------------------------------------------------------|
D|----------------------------------------------------------------|
A|----------------------------------------------------------------|
E|-3--3-3--3--3-2--7777777777777777-------------------------------|


Chorus: 1:08

G|----------------------------------------------------------------|
D|----------------------------------------------------------------|
A|------------------------------------9-9-------------------------|
E|-10-7-7-7-10-2-2---7-7-5h7-7-7-9h12-----------------------------| x2

Verse: 1:22

G|----------------------------------------------------------------|
D|----------------------------------------------------------------|
A|------0-2-2~----0-2-5-2-5-2--19\-------5-2-----19\--------------|
E|-3~-2---------2-------------------------------------------------|

G|----------------------------------------------------------------|
D|----------------------------------------------------------------|
A|----------------------------------------------------------------|
E|-3333333333-14-14-14-14-14-14-7777777777555555------------------|

G|----------------------------------------------------------------|
D|----------------------------------------------------------------|
A|----------------------------------------------------------------|
E|-3333333333-14-14-14-14-14-14-7777777777777777-10~-9-7~--9-10~--|


Bridge: Bass starts at 3:00

G|----------------------------------------------------------------|
D|----------------------------------------------------------------|
A|----------------------------------------------------------------|
E|--/14\7~-5~-3~-/14\7~-5~----------------------------------------|


Pre-Chorus: 3:19

G|----------------------------------------------------------------|
D|----------------------------------------------------------------|
A|----------------------------------------------------------------|
E|-3333333333-14-14-14-14-14-14-7777777777555555------------------|


Chorus: 3:27

G|----------------------------------------------------------------|
D|----------------------------------------------------------------|
A|------------------------------------9-9-------------------------|
E|-10-7-7-7-10-2-2---7-7-5h7-7-7-9h12-----------------------------|

G|----------------------------------------------------------------|
D|----------------------------------------------------------------|
A|----------------------------------------------------------------|
E|-10\7-x-10\2--7--5h7--9h12--2~-----------------------------------|

| x - Mute strings
| / - Slide up
| \ - Slide down
| ~ - Vibrato

Other versions of Jumpsuit

- Jumpsuit (Ver. 2)Bass tabs
- Jumpsuit (Ver. 3)Bass tabs
- Jumpsuit (Ver. 4)Bass tabs
- Jumpsuit (Ver. 5)Bass tabs
- Jumpsuit (Ver. 6)Bass tabs

Comments