Log in

One click and you are in

Login with Facebook Login with Google

Why sign up and log in

Guitar Tabs Explorer
Twenty One Pilots bass tabs for Jumpsuit (Ver. 6)

Bass tabs

Tuning: Half-Step Down (D# G# C# F#)

Difficulty: Novice


Intro:
G|-------------------------------------|
D|-----------------------------0h3-55--|
A|-3/6-333-3/6----3/6 3333 0h3---------|
E|------------333----------------------|
Verse:

G|---------------------------------------------------------------------------------|
D|----------4----------------------------------------------------------------------|
A|--------3----3----3--1-----------------------------------------------------------|
E|--4--44--------------------------------------------------------------------------|
 repeat until chorus hits


Chorus:
G|-------------------------------------|
D|-----------------------------0h3-55--|
A|-3/6-333-3/6----3/6 3333 0h3---------|
E|------------333----------------------|
repeat until next verse


Verse 2:
G|---------------------------------------------------------------------------------|
D|----------4----------------------------------------------------------------------|
A|--------3----3----3--1-----------------------------------------------------------|
E|--4--44--------------------------------------------------------------------------|

Chorus 2:
G|-------------------------------------|
D|-----------------------------0h3-55--|
A|-3/6-333-3/6----3/6 3333 0h3---------|
E|------------333----------------------|

*only for this chorus, play at 1:40
G|--------------------------------------|
D|--------------------------------------|
A|-------------------33333333-11111111--|
E|-4444444444444444---------------------|


Outro after::(2:01)
G|---------------------------------------------------------------------------------|
D|---------------------------------------------------------------------------------|
A|--------------------5----3--------------5----6-----------------------------------|
E|---------------------------------------------------------------------------------|


Bridge:
G|-----------------------------------------------------------------------|
D|-----------------------------------------------------------------------|
A|--6666666666666666------------------33333333-11111111------------------|
E|------------------6666666666666666-------------------4444444444444444--|


Outro: (I can't believe how much...)
G|-----------------------------------------|
D|-----------------------------------------|
A|--------------3333-111111111111-6666-----|
E|--444444444444----------------------6-4--|

************************************

| h Hammer-on
| / Slide up

************************************

Other versions of Jumpsuit

JumpsuitBass tabs
Jumpsuit (Ver. 2)Bass tabs
Jumpsuit (Ver. 3)Bass tabs
Jumpsuit (Ver. 4)Bass tabs
Jumpsuit (Ver. 5)Bass tabs

Almost there ...

Sign in to get your own page with links to favourite songs and more. You are just one click away...

Login with Facebook Login with Google