Log in

One click and you are in

Login with Facebook Login with Google

Why sign up and log in

Guitar Tabs Explorer
Twenty One Pilots bass tabs for Jumpsuit (Ver. 5)

Bass tabs

Tuning: Drop D (D A D G)

Difficulty: Intermediate


Intro: 0:08

G|---------------------------------------------|
D|---------------------------------------------|
A|-------------------------------------7/9-9-9-|
D|-12\9-9-9---9/12\4-4---9-9--7h9-9--9---------| x4

Verse: 0:38

G|---------------------|
D|---------------------|
A|----/10-10-----------|
D|-5~----------9~--7-7-| x2

0:53

G|----------------------------------|
D|----------------------------------|
A|----------------------------------|
D|-5---5---5--5-5----9---9---9--9-9-|

G|---------------------------------|
D|---------------------------------|
A|---------------------------------|
D|-5---5---5--5-5----9-9-9-9-9-9-9-|


Break: 1:09

G|---------------------------------------------|
D|---------------------------------------------|
A|-------------------------------------7/9-9-9-|
D|-12\9-9-9---9/12\4-4---9-9--7h9-9--9---------| x2


Verse: 1:24

G|---------------------------------------|
D|-------------------------------/12-12\-|
A|---------------------------------------|
D|-5~---5799~---579--12-9-12-9-----------|

rest until 1:36

G|-----------------|
D|---------/12-12\-|
A|-----------------|
D|-12-9------------|


Verse 2: 1:39

G|---------------------|
D|---------------------|
A|----/10-10-----------|
D|-5~----------9~--7-7-| x2


Bridge: 1:54

G|------------------------------------|
D|------------------------------------|
A|------------------------------------|
D|-12~----------11-9~----------11-12~-|

rest until 2:58

G|---------------------|
D|---------------------|
A|----/10-10-----------|
D|-5~----------9~--7-7-| x2

rest until 3:20 (when the drums come in)

G|----------------------------------------|
D|----------------------------------------|
A|-----------/10-10-10-10-----------------|
D|-5-5-5-5-5--------------9-9-9-9-9-9-9-9-|


Outro: 3:29

G|---------------------------------------------|
D|---------------------------------------------|
A|-------------------------------------7/9-9-9-|
D|-12\9-9-9---9/12\4-4---9-9--7h9-9--9---------|

G|---------------------------|
D|---------------------------|
A|--------------------7/9-9~-|
D|-12\9~---12\4~--9-9--------|



***********************************
| /  Slide up
| \  Slide down
| h  Hammer-on
| ~  Hold note
***********************************

Other versions of Jumpsuit

JumpsuitBass tabs
Jumpsuit (Ver. 2)Bass tabs
Jumpsuit (Ver. 3)Bass tabs
Jumpsuit (Ver. 4)Bass tabs
Jumpsuit (Ver. 6)Bass tabs

Almost there ...

Sign in to get your own page with links to favourite songs and more. You are just one click away...

Login with Facebook Login with Google