Log in

One click and you are in

Login with Facebook Login with Google

Why sign up and log in

Guitar Tabs Explorer
Twenty One Pilots bass tabs for Jumpsuit (Ver. 4)

Bass tabs

Tuning: Standard (E A D G)

Difficulty: Novice


Intro: 0:08

G|---------------------------|-----------------------------------------------|
D|---------------------------|-----------------------------------------------|
A|-5/2-2-2-5-----------------|--------7-9-9----------------------------------|
E|-----------2-2-2-77--5h7-7-|-----7-----------------------------------------|

4 times
verse: 0:39

G|--------------------|------------------------------------------------------|
D|---16-16-------------|-16-16-----------------------------------------------|
A|-5------2--12-12--5--|--------2-------------------2-2-2-2------------------|
E|--------------------|-----------5-5---3-3-3-3-2-2---------5-5--------------|

G|--------------|------------------------------------------------------------|
D|--------------|------------------------------------------------------------|
A|--------------|-2-2-2-2----------------------------------------------------|
E|-3-3-3-3-2-2--|-----------5-5----------------------------------------------|

 1:09

G|------------------------|--------------------------------------------------|
D|------------------------|--------------------------------------------------|
A|-5-2-2-2-5--------------|-------------7-9-9--------------------------------|
E|-----------2-2-2--5h7-7-|--5h7-7---7---------------------------------------|

G|------------------------|--------------------------------------------------|
D|------------------------|--------------------------------------------------|
A|-5-2-2-2-5--------------|-------------7-9-9--------------------------------|
E|-----------2-2-2--5h7-7-|--5h7-7---7---------------------------------------|

verse: 1:24

G|---------------------|-----------------------------------------------------|
D|---------------------|-----------9-9----9-9--------------------------------|
A|-5--------2----------|--5-2-5-2--------5-----------------------------------|
E|---2-5-7-----2-5-7---|-----------------------------------------------------|

G|-----------------------------------|---------------------------------------|
D|---------------------16-16-16-16---|------------------------9-9-9-9--------|
A|-5-5-5-5-5-5-5-5-5-5---------------|-2-2-2-2-2-2-2-2-2-2-------------------|
E|-----------------------------------|---------------------------------------|

G|-----------------------------------|---------------------------------------|
D|---------------------16-16-16-16---|------------------------9-9-9-9--------|
A|-5-5-5-5-5-5-5-5-5-5---------------|-2-2-2-2-2-2-2-2-2-2-------------------|
E|-----------------------------------|---------------------------------------|


bridge: - beginning notes then silence

G|---------------------------------------------------------------------------|
D|---------------------------------------------------------------------------|
A|-5--4--2---4----5----------------------------------------------------------|
E|---------------------------------------------------------------------------|


ending of bridge

G|--------------------------------------------|------------------------------|
D|--------------------------------------------|------------------------------|
A|-5--2----------5---2------------------------|--2 x8------------------------|
E|-------2--3-----------2-2-2-2-2-2-2-2-2-2-2-|---------5-x8-----------------|


ending: 3:27 - listen for breaks and pauses

G|------------------------|--------------------------------------------------|
D|------------------------|--------------------------------------------------|
A|-5-2-2-2-5--------------|-------------7-9-9--------------------------------|
E|-----------2-2-2--5h7-7-|--5h7-7---7---------------------------------------|

G|------------------------|--------------------------------------------------|
D|------------------------|--------------------------------------------------|
A|-5-2-2-2-5--------------|-------------7-9-9--------------------------------|
E|-----------2-2-2--5h7-7-|--5h7-7---7---------------------------------------|


************************************

| / Slide up
| h Hammer-on
| x Dead note


************************************

Other versions of Jumpsuit

JumpsuitBass tabs
Jumpsuit (Ver. 2)Bass tabs
Jumpsuit (Ver. 3)Bass tabs
Jumpsuit (Ver. 5)Bass tabs
Jumpsuit (Ver. 6)Bass tabs

Almost there ...

Sign in to get your own page with links to favourite songs and more. You are just one click away...

Login with Facebook Login with Google