Log in

One click and you are in

Login with Facebook Login with Google

Why sign up and log in

Guitar Tabs Explorer
Twenty One Pilots bass tabs for Jumpsuit (Ver. 3)

Bass tabs

Tuning: Standard (E A D G)

Difficulty: Novice


Intro:
G|------------|-----------|------------|---------------|
D|------------|-----------|------------|---------------|
A|-5--2--2--2-|--5--------|-2--2--2--2-|-2--7--9--9----|x3
E|------------|----2--2---|------------|---------------|

G|------------|-----------|------------|------------|
D|------------|-----------|------------|------------|
A|-5--2--2--2-|--5--------|-2--2--2--2-|-2--7--9----|
E|------------|----2--2---|------------|------------|
Verse:
G|--|------------|-----------|-----------|--------|----------|-----------|----------|-----------------|
D|--|------------|-----------|-----------|--------|----------|-----------|----------|-----------------|
A|--|-9--9\2-----|-----------|-9--9\2----|--------|-9--9\2---|-----------|-9--9\2---|-2-2-2-2-2-2-2-2-|
E|--|------------|-5--5--3---|-----------|-5--5---|----------|-5--5--3---|----------|-----------------|

G|------------|------------|------------|------------|
D|------------|------------|------------|------------|
A|-5--2--2--2-|--5---------|-2--2--2--2-|-2--7--9----|x2
E|------------|-----2--2---|------------|------------|


Verse:
G|--|------------|------------|-------------|-----|----------------|
D|--|------------|------------|-------------|-----|----------------|
A|--|-9--9\2-----|----------2-|-5--2--5--2--|--9--|-5---2---7/9----|
E|--|------------|---2--5-----|-------------|-----|----------------|

G|-----------------|---------|-----------|-----------|----------|-----|-----|---------|--------------|
D|-----------------|---------|-----------|-----------|----------|-----|-----|---------|--------------|
A|-----------------|-9--9\2--|-----------|--9--9\2---|----------|-----|--5--|----4-2--|-----4-5------|
E|-3-3-3-3-3-3-3-3-|---------|-5--5--3---|-----------|---5--5---|-----|-----|---------|--------------|

Bridge:
Start at 2nd high "if you need anyone"(Where they show a ground view of them throwing petals in the video)
G|----|----|----|----|----|----|----|----|----|----|--------|----------|---------|----------|
D|----|----|----|----|----|----|----|----|----|----|--------|----------|---------|----------|
A|----|----|----|----|----|----|----|----|----|----|--/10\2-|----------|--9--9\2-|----------|
E|----|----|----|----|----|----|----|----|----|----|--------|--5--5--3-|---------|----5--5--|

G|----|----|----|----|----|-----------------|---------|----------|
D|----|----|----|----|----|-----------------|---------|----------|
A|----|----|----|----|----|-----------------|--9--9\2-|----------|
E|----|----|----|----|----|-3-3-3-3-3-3-3-3-|---------|--5--5----|


Outro:
G|------------|----------|------------|-------------|-------|------|--------|--------|
D|------------|----------|------------|-------------|-------|------|--------|--------|
A|-5--2--2--2-|--5-------|-2--2--2--2-|-2--7--9--9--|--5\2--|--5---|---5\2--|--7--9--|
E|------------|----2--2--|------------|-------------|-------|---2--|--------|--------|


************************************

| /  Slide up
| \  Slide down

************************************

Other versions of Jumpsuit

JumpsuitBass tabs
Jumpsuit (Ver. 2)Bass tabs
Jumpsuit (Ver. 4)Bass tabs
Jumpsuit (Ver. 5)Bass tabs
Jumpsuit (Ver. 6)Bass tabs

Almost there ...

Sign in to get your own page with links to favourite songs and more. You are just one click away...

Login with Facebook Login with Google