Log in

One click and you are in

Login with Facebook Login with Google

Why sign up and log in

Guitar Tabs Explorer
Twenty One Pilots bass tabs for Jumpsuit (Ver. 2)

Bass tabs

Tuning: Standard (E A D G)

Key: Bm

Difficulty: Novice
Intro:
Turn on Overdrive pedal, use pick
G|------------------------------------|
D|------------------------------2-4-4-|
A|-5--2-2-2--5--------2-2-2-2-2-------|
E|-------------2-2-2------------------|
Play 4 times


Chorus:
Turn off Overdrive pedal, use fingers
G|--------------------------------------------------------------------------------------|
D|--------------------------------------------------------------------------------------|
A|-------2----------------2/12-----------------2-22222--0------------------2-22--2-2222-|
E|-3/14-------0----3/14----------3-333--3-3----------------3-33333--3-33----------------|
after the 2/12, the bass is played lightly to the beat of the kick drum. It's subtle, so play softly.


Instrumental:
Turn on overdrive pedal, use pick
G|------------------------------------|
D|------------------------------2-4-4-|
A|-5--2-2-2--5--------2-2-2-2-2-------|
E|-------------2-2-2------------------|
Play 2 times


Verse:
Turn off overdrive, use fingers
G|----------------------------------------------|
D|----------------------------------------------|
A|--------22-----2-5252----2/9-75----5-2--2/7\0-|
E|-3----03-----03-----------------0-------------|


Chorus:
Fingers
G|--------------------------------------------------------------------------|
D|--------------------------------------------------------------------------|
A|------------------2-2-2-2-2/12-12-12--------------------2-2-2-2-2-2-2-2---|
E|-3-3-3-3-3-35-3-3--------------------3-3-3-3-3/14-14-14-------------------|


Bridge:
Fingers
G|---------------------------------------------------------|
D|-------------------------------------------------------5-|
A|-5-----4-2----4-5----0---------------5--0----------------|
E|-------------------------0---2---3---------0---2---3-----|
After the 4 5, there is no bass on the next 2 chords (hold the 5). Wait till the chord after.

G|----------------------------------------------------------------|
D|----------------------------------------------------------------|
A|------------12-----10----------------12------10/12\9-----2----0-|
E|-3/15\7----------------------3/14\7-----------------------------|


Chorus:
Pick
G|-------------------------------------------------|
D|-------------------------------------------------|
A|------------------2222222222222222---------------|
E|-3333333333333333--------------------------------|
No bass on first part


Instrumental:
Turn on Overdrive pedal, use pick
G|------------------------------------|
D|------------------------------2-4-4-|
A|-5--2-2-2--5--------2-2-2-2-2-------|
E|-------------2-2-2------------------|

G|----------------------------------|
D|--------------------2-4-----------|
A|-5b\2-5------55555----------------|
E|--------2-2-----------------------|


************************************

| b  Bend
| /  Slide up
| \  Slide down

************************************

Other versions of Jumpsuit

JumpsuitBass tabs
Jumpsuit (Ver. 3)Bass tabs
Jumpsuit (Ver. 4)Bass tabs
Jumpsuit (Ver. 5)Bass tabs
Jumpsuit (Ver. 6)Bass tabs

Almost there ...

Sign in to get your own page with links to favourite songs and more. You are just one click away...

Login with Facebook Login with Google