Log in

One click and you are in

Login with Facebook Login with Google

Why sign up and log in

Guitar Tabs Explorer
Twenty One Pilots bass tabs for Chlorine

Bass tabs

Tuning: Standard (E A D G)

Difficulty: Novice


Chorus 1:

G|-----------|-----------|-----------|-----------|-----------|-----------|-----------|-----------|
D|-----------|-----------|-----------|-----------|-----------|-----------|-----------|-----------|
A|--4--------|--------6--|-----------|--------4--|-----------|--4-----6--|--------6--|-----------|
E|-----------|--4--------|--6-----4--|--6--------|--2--------|-----------|--4--------|--6--------|

Verse 1:

G|-----------|-----------|-----------|-----------|
D|-----------|--6--------|--8--------|--8--------|
A|--4--------|--------6--|-----------|-----------| (x2)
E|-----------|-----------|-----------|-----------|

G|-----------|-----------|-----------|--6-5------|
D|--4--------|-/8--------|-----------|-----------|
A|-----------|--------6--|-----------|-----------|
E|-----------|-----------|--4--------|-----------|


Chorus 2:

G|-----------|-----------|-----------|-----------|-----------|-----------|-----------|-----------|
D|-----------|-----------|-----------|-----------|-----------|-----------|-----------|-----------|
A|--4--------|--------6--|-----------|--------4--|-----------|--4-----6--|--------6--|-----------|
E|-----------|--4--------|--6-----4--|--6--------|--2--------|-----------|--4--------|--6--------|


Verse 2:

G|-----------|-----5-----|-----------|-----------|
D|-----------|--6-----6--|--8--------|--8--------|
A|--4--------|-----------|-----------|-----------| (x2)
E|-----------|-----------|-----------|-----------|

G|-----------|-----------|-----------|--6-5------|
D|--4--------|-/8--------|-----------|-----------|
A|-----------|--------6--|-----------|-----------| (x2)
E|-----------|-----------|--4--------|-----------|


Verse 3:

G|-----------|-----------|-----------|-----------|
D|-----------|-----------|-----------|-----------|
A|--4--------|--------6--|-----------|-----------|
E|-----------|--4--------|--6--------|--6--------|

G|-----------|-----------|-----------|-----------|
D|-----------|-----------|-----------|-----------|
A|-----------|--4-----6--|-----------|-----------|
E|--2--------|-----------|--4--------|--6--------|


Chorus 3:

G|-----------|-----------|-----------|-----------|-----------|-----------|-----------|-----------|
D|-----------|-----------|-----------|-----------|-----------|-----------|-----------|-----------|
A|--4--------|--------6--|-----------|--------4--|-----------|--4-----6--|--------6--|-----------| (x2)
E|-----------|--4--------|--6-----4--|--6--------|--2--------|-----------|--4--------|--6--------|


Bridge:

G|-----------|-----------|-----------|-----------||
D|-----------|-----------|-----------|-----------||
A|--4--------|--------6--|-----------|-----------||
E|-----------|--4--------|--6--------|--6--------||
                                                  | (x3)
G|-----------|-----------|-----------|-----------||
D|-----------|-----------|-----------|-----------||
A|-----------|--------6--|-----------|-----------||
E|--2--------|--6--------|--4--------|--6--------||


Outro:
4:38
G|-----------|-----------|-----------|-----------|
D|-----------|-----------|-----------|-----------|
A|-----------|--------6--|-----------|-----------|
E|--2--------|--6--------|--4--------|--1--------|

G|-----------|-----------|-----------|-----------|
D|-----------|-----------|-----------|-----------|
A|-----------|--------6--|-----------|-----------|
E|--2--------|--6--------|--4--------|--6--------|


************************************

| /   Slide up

************************************

Other versions of Chlorine

Chlorine (Ver. 2)Bass tabs

Almost there ...

Sign in to get your own page with links to favourite songs and more. You are just one click away...

Login with Facebook Login with Google