Log in

One click and you are in

Login with Facebook Login with Google

Why sign up and log in

Guitar Tabs Explorer
Twenty One Pilots bass tabs for Car radio - heathens live

Car Radio - Heathens Live bass tab by Twenty One Pilots

Twenty One Pilots bass tabs for Car radio - heathens live

Bass tabs

  • Difficulty: Intermediate
Performance: MTV Unplugged

Key: Am


Intro:
G|------|-------|------|------|
D|------|-------|------|------|
A|------|-------|------|------|
E|--5\--|---5\--|--5\--|--5\--|



G|------------------|-------------4-4-|-5-5-5-5-5-4-5-7-|-4-4-4-4-4---4-5-|
D|--7-7-7-7-7-5-7-5-|-7-7-7-7-7-7-----|-----------------|-----------7-----|
A|------------------|-----------------|-----------------|-----------------|
E|------------------|-----------------|-----------------|-----------------|

G|-14-14-14-14-14-12-14-12-|-14-14-14-14-14-14-12-12-|-9-9-9-9-9----9-12-|-9-12-12-12-12-9-12-9-|
D|-------------------------|-------------------------|-----------12------|----------------------|
A|-------------------------|-------------------------|-------------------|----------------------|
E|-------------------------|-------------------------|-------------------|----------------------|


Car Radio


Verse 1:

G|------|-------|------|------|
D|------|-------|------|------|
A|------|-------|------|------|
E|--5\--|---5\--|--5\--|--5\--|

G|------|-------|------|------|
D|------|-------|------|------|
A|------|-------|------|------|
E|--5\--|---5\--|--5\--|--5\--|

Sometimes Quiet is violent - Then:

G|-5-5-5-5-5-4-5-7-|-4-4-4-4-4---4-5-|
D|-----------------|-----------7-----|
A|-----------------|-----------------|
E|-----------------|-----------------|

G|------------------|-------------4-4-|-5-5-5-5-5-4-5-7-|-4-4-4-4-4---4-5-|
D|--7-7-7-7-7-5-7-5-|-7-7-7-7-7-7-----|-----------------|-----------7-----|
A|------------------|-----------------|-----------------|-----------------|
E|------------------|-----------------|-----------------|-----------------|

G|------------------|-------------4-4-|-9-9-9-9-9----9-12-|-9-12-12-12-12-9-12-9-|
D|--7-7-7-7-7-5-7-5-|-7-7-7-7-7-7-----|-----------12------|----------------------|
A|------------------|-----------------|-------------------|----------------------|
E|------------------|-----------------|-------------------|----------------------|

G|------------------|-------------4-4-|-5-5-5-5-5-4-5-7-|-4-4-4-4-4---4-5-|
D|--7-7-7-7-7-5-7-5-|-7-7-7-7-7-7-----|-----------------|-----------7-----|
A|------------------|-----------------|-----------------|-----------------|
E|------------------|-----------------|-----------------|-----------------|

G|------|-------|------|------|
D|------|-------|------|------|
A|------|-------|------|------|
E|--5\--|---5\--|--5\--|--5\--|

Into
Heathens

G|----------|---------|-------3-|-1-------|
D|------5---|-----3-2-|-2-2-2---|---2-2---|
A|--3-3---3-|-0-0-----|---------|---------|
E|----------|---------|---------|---------|

G|----------|---------|-------3-|-1-------|
D|------5---|-----3-2-|-2-2-2---|---2-2---|
A|--3-3---3-|-0-0-----|---------|---------|
E|----------|---------|---------|---------|

G|----------|---------|-------3-|-1-------|
D|------5---|-----3-2-|-2-2-2---|---2-2---|
A|--3-3---3-|-0-0-----|---------|---------|
E|----------|---------|---------|---------|

G|----------|---------|-------3-|-1-------|
D|------5---|-----3-2-|-2-2-2---|---2-2---|
A|--3-3---3-|-0-0-----|---------|---------|
E|----------|---------|---------|---------|

G|----------|---------|-------3-|-1-------|
D|------5---|-----3-2-|-2-2-2---|---2-2---|
A|--3-3---3-|-0-0-----|---------|---------|
E|----------|---------|---------|---------|

G|----------|---------|-------3-|-1-------|
D|------5---|-----3-2-|-2-2-2---|---2-2---|
A|--3-3---3-|-0-0-----|---------|---------|
E|----------|---------|---------|---------|

Car Radio 2:

G|-----------------|-----------------|-----------------|---------------------|
D|-----------------|-----------------|-----------------|---------------------|
A|-----------------|-----------------|-----------------|---------------------|
E|-5-5-5-5-5-5-5-5-|-5-5-5-5-5-5-5-5-|-5-5-5-5-5-5-5-5-|-5-5-8-8-10-10-12-12-|

G|-----------------|-----------------|-----------------|---------------------|
D|-----------------|-----------------|-----------------|---------------------|
A|-----------------|-----------------|-----------------|---------------------|
E|-5-5-5-5-5-5-5-5-|-5-5-5-5-5-5-5-5-|-5-5-5-5-5-5-5-5-|-5-5-8-8-10-10-12-12-|

G|-----------------|-----------------|-----------------|---------------------|
D|-----------------|-----------------|-----------------|---------------------|
A|-----------------|-----------------|-----------------|---------------------|
E|-5-5-5-5-5-5-5-5-|-5-5-5-5-5-5-5-5-|-5-5-5-5-5-5-5-5-|-5-5-8-8-10-10-12-12-|

G|-----------------|-----------------|-----------------|---------------------|
D|-----------------|-----------------|-----------------|---------------------|
A|-----------------|-----------------|-----------------|---------------------|
E|-5-5-5-5-5-5-5-5-|-5-5-5-5-5-5-5-5-|-5-5-5-5-5-5-5-5-|-5-5-8-8-10-10-12-12-|

Try to Think
Try to think
try to think

(into Car Radio Vessel/Heathens)

G|-----|-------|-----|-----|
D|-----|-------|-----|-----|
A|-----|-------|-----|-----|
E|-1---|-1---3-|-5---|-3---|

Repeat forever until:

And Now I Just Sit In Silence

G|------------------|-------------4-4-|-5-5-5-5-5-4-5-7-|-4-4-4-4-4---4-5-|
D|--7-7-7-7-7-5-7-5-|-7-7-7-7-7-7-----|-----------------|-----------7-----|
A|------------------|-----------------|-----------------|-----------------|
E|------------------|-----------------|-----------------|-----------------|

G|------------------|-------------4-4-|-5-5-5-5-5-4-5-7-|-4-4-4-4-4---4-5-|
D|--7-7-7-7-7-5-7-5-|-7-7-7-7-7-7-----|-----------------|-----------7-----|
A|------------------|-----------------|-----------------|-----------------|
E|------------------|-----------------|-----------------|-----------------|

G|------------------|-------------4-4-|-5-5-5-5-5-4-5-7-|-4-4-4-4-4---4-5-|
D|--7-7-7-7-7-5-7-5-|-7-7-7-7-7-7-----|-----------------|-----------7-----|
A|------------------|-----------------|-----------------|-----------------|
E|------------------|-----------------|-----------------|-----------------|

G|------------------|-------------4-4-|-5-5-5-5-5-4-5-7-|-4-4-4-4-4---4-5-|
D|--7-7-7-7-7-5-7-5-|-7-7-7-7-7-7-----|-----------------|-----------7-----|
A|------------------|-----------------|-----------------|-----------------|
E|------------------|-----------------|-----------------|-----------------|

G|------------------|-------------4-4-|-5-5-5-5-5-4-5-7-|-4-4-4-4-4---4-5-|
D|--7-7-7-7-7-5-7-5-|-7-7-7-7-7-7-----|-----------------|-----------7-----|
A|------------------|-----------------|-----------------|-----------------|
E|------------------|-----------------|-----------------|-----------------|

G|------------------|-------------4-4-|-5-5-5-5-5-4-5-7-|-4-4-4-4-4---4-5-|
D|--7-7-7-7-7-5-7-5-|-7-7-7-7-7-7-----|-----------------|-----------7-----|
A|------------------|-----------------|-----------------|-----------------|
E|------------------|-----------------|-----------------|-----------------|

G|------------------|
D|--7-7-7-7-7-------|
A|------------------|
E|------------------|


Outro:

G|-----|-------|-----|-----|
D|-----|-------|-----|-----|
A|-----|-------|-----|-----|
E|-1---|-1---3-|-5---|-3---|

G|-----|-------|-----|-----|
D|-----|-------|-----|-----|
A|-----|-------|-----|-----|
E|-1---|-1---3-|-5---|-3---|

G|-----|-------|-----|-----|
D|-----|-------|-----|-----|
A|-----|-------|-----|-----|
E|-1---|-1---3-|-5---|-3---|

G|-----|-------|-----|-----|
D|-----|-------|-----|-----|
A|-----|-------|-----|-----|
E|-1---|-1---3-|-5---|-3---|


************************************
| \  Slide down

************************************
ⓘ Bass guitar tab for 'Car Radio - Heathens Live' by Twenty One Pilots, an alternative rock band formed in 2009 from Columbus, Ohio. Twenty One Pilots is known for their enlightened urban/r&b music.

Almost there ...

Sign in to get your own page with links to favourite songs and more. You are just one click away...

Login with Facebook Login with Google