Log in

One click and you are in

Login with Facebook Login with Google

Why sign up and log in

Guitar Tabs Explorer
Twenty One Pilots bass tabs for Bounce man

Bass tabs with lyrics

  • Difficulty: Beginner
Tuning: Standard (E A D G)


Chorus:

You should bounce, bounce, bounce man
Come to the house, man, I'll let my old lady know
You'll be in and out, out, out man
Float you a couple bands, then you head to Mexico
Post-Chorus:

G|-----------------|---------------|---------------|---------------|
D|-----------------|---------------|---------------|---------------|
A|--3-3--3--3-3-3--|---------------|--7--7--7-7-7--|--5--5--5-5-5--|
E|-----------------|--3--3--3-3-3--|---------------|---------------|

G|---------------|---------------|---------------|-----------------|
D|---------------|---------------|---------------|-----------------|
A|--3--3--3-3-3--|--2--2--2-2-2--|--7--7--7-7-7--|--5/7--7--7-7-7--|
E|---------------|---------------|---------------|-----------------|


Verse 1:

G|--------------|---------------|--------------|--------------|--------------|--------------|
D|--------------|---------------|--------------|--------------|--------------|--------------|
A|--5~~~--------|---------------|--------------|--2----2-2-2--|--------------|--------------|
E|--------------|--5~~~----5-5--|--3----3-3-3--|--------------|--5----5-5----|--3/5--5-5-5--|

G|--------------|---------------|--------------|--------------|--------------|--------------|
D|--------------|---------------|--------------|--------------|--------------|--------------|
A|--5~~~--------|---------------|--------------|--2----2-2-2--|--------------|--------------|
E|--------------|--5~~~----5-5--|--3----3-3-3--|--------------|--5----5-5----|--3/5--5-5-5--|

G|--------------|
D|--------------|
A|--5~~~---7/9--|
E|--------------|


Chorus:

You should bounce, bounce, bounce man
Come to the house, man, I'll let my old lady know
You'll be in and out, out, out man
Float you a couple bands, then you head to Mexico
Yeah, I told you all along
Running away don't make you wrong
Before you bounce, bounce, bounce man
Come to the house, man, we'll sing one more song
So long


Post-Chorus:

G|-----------------|---------------|---------------|---------------|
D|-----------------|---------------|---------------|---------------|
A|--3-3--3--3-3-3--|---------------|--7--7--7-7-7--|--5--5--5-5-5--|
E|-----------------|--3--3--3-3-3--|---------------|---------------|

G|---------------|---------------|---------------|-----------------|
D|---------------|---------------|---------------|-----------------|
A|--3--3--3-3-3--|--2--2--2-2-2--|--7--7--7-7-7--|--5/7--7--7-7-7--|
E|---------------|---------------|---------------|-----------------|


Verse 2:

G|---------------|-------------|-------------|---------------|
D|---------------|-------------|-------------|---------------|
A|--5~~~--5-4----|-------------|--2---2-2-2--|---------------|
E|------------5--|--3---3-3-3--|-------------|--5--5-5--5-5--|

G|--------------|---------------|--------------|--------------|--------------|--------------|
D|--------------|---------------|--------------|--------------|--------------|--------------|
A|--5~~~--------|---------------|--------------|--2----2-2-2--|--------------|--------------|
E|--------------|--5~~~----5-5--|--3----3-3-3--|--------------|--5----5-5----|--3/5--5-5-5--|

G|--------------|
D|--------------|
A|--5~~~---7/9--|
E|--------------|


Chorus:

You should bounce, bounce, bounce man
Come to the house, man, I'll let my old lady know
You'll be in and out, out, out man
Float you a couple bands, then you head to Mexico
Yeah, I told you all along
Running away don't make you wrong
Before you bounce, bounce, bounce man
Come to the house, man, we'll sing one more song
So long


Post-Chorus:

G|-----------------|---------------|---------------|---------------|
D|-----------------|---------------|---------------|---------------|
A|--3-3--3--3-3-3--|---------------|--7--7--7-7-7--|--5--5--5-5-5--|
E|-----------------|--3--3--3-3-3--|---------------|---------------|

G|---------------|---------------|---------------|-----------------|
D|---------------|---------------|---------------|-----------------|
A|--3--3--3-3-3--|--2--2--2-2-2--|--7--7--7-7-7--|--5/7--7--7-7-7--|
E|---------------|---------------|---------------|-----------------|

2nd Half of Chorus:

G|-----------------|---------------|---------------|---------------|
D|-----------------|---------------|---------------|---------------|
A|--3-3--3--3-3-3--|---------------|--7--7--7-7-7--|--5--5--5-5-5--|
E|-----------------|--3--3--3-3-3--|---------------|---------------|

G|---------------|---------------|---------------|-----------------|
D|---------------|---------------|---------------|-----------------|
A|--3--3--3-3-3--|--2~~~---------|--7--7--7-7-7--|--5/7------------|
E|---------------|---------------|---------------|-----------------|


************************************

| /  Slide up
| \  Slide down
| ~  Vibrato

************************************

Almost there ...

Sign in to get your own page with links to favourite songs and more. You are just one click away...

Login with Facebook Login with Google