Log in

One click and you are in

Login with Facebook Login with Google

Why sign up and log in

Guitar Tabs Explorer
Twang bass tabs for Encouraging sign

Bass tabs

Tuning: Standard (E A D G)


Intro:
G|----------------------------------------------------|
D|-------------9--8-8-8-8-9\----------------6-6-6-6-8-|
A|-9-9-9--8-9-----------------6-6-6--6-4-6------------| x2
E|----------------------------------------------------|
Verse:
G|----------------------------------------------------|
D|-------------9--8-8-8-8-9\----------------6-6-6-6-8-|
A|-9-9-9--8-9-----------------6-6-6--6-4-6------------|
E|----------------------------------------------------|

G|-------------------------------------------------------|
D|-------------9--8-8-8-8-9\----------------6-6-6-6--4-6-|
A|-9-9-9--8-9-----------------6-6-6--6-4-6---------------|
E|-------------------------------------------------------|


Pre-Chorus:
G|-------------------------------------------------|
D|-8-8-8-8-----------------------------------------|
A|---------9\--6-6-6-6-9\-------------6--4-4-4-4-6-|
E|-------------------------7-7-7--6-7--------------|

G|--------------------------------------------------------|
D|-8-8-8-8------------------------------------------------|
A|---------9\--6-6-6-6-9\-----------------------6-6--8-8--|
E|-------------------------7-7-7--6-7-9--7-7-7------------|

Chorus:
G|----------------------------------------------------|
D|-------------9--8-8-8-8-9\----------------6-6-6-6-8-|
A|-9-9-9--8-9-----------------6-6-6--6-4-6------------|
E|----------------------------------------------------|

G|-------------------------------------------------------|
D|-------------9--8-8-8-8-9\----------------6-6-6-6--4-6-|
A|-9-9-9--8-9-----------------6-6-6--6-4-6---------------|
E|-------------------------------------------------------|

G|-------------------------------------------------|
D|-8-8-8-8-----------------------------------------|
A|---------9\--6-6-6-6-9\-------------6--4-4-4-4-6-|
E|-------------------------7-7-7--6-7--------------|

G|-------------------------------------------------------|
D|-8-8-8-8-----------------------------------------------|
A|---------9\--6-6-6-6-9\-------------6--4-4-4-4-4-4-4-4-|
E|-------------------------7-7-7--6-7--------------------|


Chorus 2:
G|----------------------------------------------------|
D|-------------9--8-8-8-8-9\----------------6-6-6-6-8-|
A|-9-9-9--8-9-----------------6-6-6--6-4-6------------|
E|----------------------------------------------------|

G|-------------------------------------------------------|
D|-------------9--8-8-8-8-9\----------------6-6-6-6--4-6-|
A|-9-9-9--8-9-----------------6-6-6--6-4-6---------------|
E|-------------------------------------------------------|

G|-------------------------------------------------|
D|-8-8-8-8-----------------------------------------|
A|---------9\--6-6-6-6-9\-------------6--4-4-4-4-6-|
E|-------------------------7-7-7--6-7--------------|

G|-------------------------------------------------------|
D|-8-8-8-8-----------------------------------------------|
A|---------9\--6-6-6-6-9\-------------6--4-4-4--4--4--4--|
E|-------------------------7-7-7--6-7--------------------|


Bridge:
G|---------------------------------------------------------|
D|--------------8-8--8-8-8---9-9--9-9-9---11-11--11-11-11--|
A|-9-9--9-9-9----------------------------------------------|
E|---------------------------------------------------------|

G|----------------------------------------------------------------|
D|---------------8-8--8-8-8---9-9--9-9-9---11-11---11--13---------|
A|-9-9---9-9-9--------------------------------------------13--11--|
E|----------------------------------------------------------------|

G|------------------------------------------------------------------|
D|---------------8-8--8-8-8---9-9--9-9-9-9---11-11---11--13---------|
A|-9-9---9-9-9----------------------------------------------13--11--|
E|------------------------------------------------------------------|

G|---------------------------------------------------------------------|
D|----------------8-8--8-8-8---9-9--9-9-9---11-11-11-11-11-11----------|
A|-9-9---9-9-9-------------------------------------------------13--11--|
E|---------------------------------------------------------------------|

Last Chorus:
 (x3)
G|--------------------------------------------------------------------------------------|
D|-------------------8-8-8-8-8-8--6--8---9-9-9-9-9-9--8--9---11-11-11-11--13--11--------|
A|-9-9-9-9-9--8--9----------------------------------------------------------------13-11-|
E|--------------------------------------------------------------------------------------|

G|-----------------------------------------------------------------------------11~~|
D|-8-8-8-8-8-8-----------------------------------------------------------------11~~|
A|-------------9-9---6-6-6-6-6-6--9-9----------------------4-4-4-4--6-6--8-8---9~~~|
E|--------------------------------------7-7-7-7-7-7-7-7-7--------------------------|


************************************

| h Hammer-on
| p Pull-off
| \ Slide down
| / Slide up

************************************

Almost there ...

Sign in to get your own page with links to favourite songs and more. You are just one click away...

Login with Facebook Login with Google