Log in

One click and you are in

Login with Facebook Login with Google

Why sign up and log in

Guitar Tabs Explorer
Shania Twain guitar tabs for Still the one

Guitar tabs

Intro:

E|------------------------------------------|
B|-------1h3-----1------------1-----1-------|
G|-------0--------0-------0-----------------|
D|------------------2-----------------------|
A|---3--------------------------------------|
E|--------------x------0-------x------------|

E|------------0----------------------------|
B|---------------3------1----1h3---1-------|
G|---------2-------------------------------|
D|-----------------------------------------|
A|-----------------------------------------|
E|--1--x--------------3--------------------|

Verse 1:

E|------------------------------------------|
B|-------1h3---1-----3------1---------------|
G|------0--------0--------------------------|
D|------------------------------------------|
A|---3--------------------------------------|
E|------------x--------0------x--0----------|

E|-------------------0--------------------------|
B|------1--1-------3---------3--1---1h3--1------|
G|--2-------------------------------------------|
D|----------------------------------------------|
A|----------------------------------------------|
E|--1---------x----------3-------x--------------|

E|------------------------------------------|
B|-------1h3---1-----3------1---------------|
G|-----0----------0-------------------------|
D|------------------------------------------|
A|---3--------------------------------------|
E|------------x--------0------x--0----------|

E|-------------------0--------------------------|
B|------1--1-------3---------3--1---1h3--1------|
G|--2-------------------------------------------|
D|----------------------------------------------|
A|----------------------------------------------|
E|--1---------x----------3-------x--------------|

E|-------0h3---------------0h3--------------|
B|-------------1----------------1-----------|
G|------------------------------------------|
D|------------------------------------------|
A|--3------------------3--------------------|
E|---------------x--0-----------------------|

E|-------------------0---------------------------------------------------------------|
B|------------1---3---------3-----------1----------------1h3------0------------------|
G|---------2--------------------0----------------------------------------0-----------|
D|--------------------------------3-2----------2---3---------------------------------|
A|----------------------------------3------------------------------------------------|
E|--0--1-----------------3-----------------x--------1--------x----------3----x--3----|

E|----------------------------------------------------------|
B|--------------1----------------1h3---0--------------------|
G|---0---------------------------------------0-------0------|
D|-------3---2---------2---3--------------------------------|
A|-----------3----------------------------------------------|
E|-----------------x-------1---------x-----3----x---3-------|


Chorus:


E|-----------0-----------------------------------------|
B|--0h1--1--1-----------------3--1--0-------------3----|
G|------------------0---------------2----2-------------|
D|-----------------------------------------------------|
A|-------------3---------------------------------------|
E|--x--------------------------x-------3-----x---------|

E|--------1--0-------------------0----------|
B|---------------3--1--0-------------3--1---|
G|-----2---------------------0--------------|
D|---0--------------------------------------|
A|------------------------------------------|
E|---------------x---------3-----x----------|

E|-----------0-----------------------------------------|
B|---------------3--1--0--------1h3---0--0----0--------|
G|-------0----------------2---------0--0----0----------|
D|-----------------------------------------------------|
A|---3-------------------------------------------------|
E|------------------x--------1--x----3--x--3----3------|

E|-----------------------0-------------------0---------|
B|--0h1--1--1-----------------3--1--0-------------3----|
G|------------------0---------------2----2-------------|
D|-----------------------------------------------------|
A|-------------3---------------------------------------|
E|--x--------------------------x-------3-----x---------|

E|--------1--0-------------------0----------|
B|---------------3--1--0-------------3--1---|
G|-----2---------------------0--------------|
D|---0--------------------------------------|
A|------------------------------------------|
E|---------------x---------3-----x----------|

E|-----------0-----------------------------------------|
B|---------------3--1--0--------1h3---0--0----0--------|
G|-------0----------------2---------0--0----0----------|
D|-----------------------------------------------------|
A|---3-------------------------------------------------|
E|------------------x--------1--x----3--x--3----3------|


Verse 2:

E|------------------------------------------|
B|-------1h3---1-----3------1---------------|
G|------0--------0--------------------------|
D|------------------------------------------|
A|---3--------------------------------------|
E|------------x--------0------x--0----------|

E|-------------------0--------------------------|
B|------1--1-------3---------3--1---1h3--1------|
G|--2-------------------------------------------|
D|----------------------------------------------|
A|----------------------------------------------|
E|--1---------x----------3-------x--------------|

E|------------------------------------------|
B|-------1h3---1-----3------1---------------|
G|-----0----------0-------------------------|
D|------------------------------------------|
A|---3--------------------------------------|
E|------------x--------0------x--0----------|

E|-------------------0--------------------------|
B|------1--1-------3---------3--1---1h3--1------|
G|--2-------------------------------------------|
D|----------------------------------------------|
A|----------------------------------------------|
E|--1---------x----------3-------x--------------|


E|-------0h3---------------0h3--------------|
B|-------------1----------------1-----------|
G|------------------------------------------|
D|------------------------------------------|
A|--3------------------3--------------------|
E|---------------x--0-----------------------|

E|-------------------0---------------------------------------------------------------|
B|------------1---3---------3-----------1----------------1h3------0------------------|
G|---------2--------------------0----------------------------------------0-----------|
D|--------------------------------3-2----------2---3---------------------------------|
A|----------------------------------3------------------------------------------------|
E|--0--1-----------------3-----------------x--------1--------x----------3----x--3----|

E|----------------------------------------------------------|
B|--------------1----------------1h3---0--------------------|
G|---0---------------------------------------0-------0------|
D|-------3---2---------2---3--------------------------------|
A|-----------3----------------------------------------------|
E|-----------------x-------1---------x-----3----x---3-------|


Chorus:

E|-----------0-----------------------------------------|
B|--0h1--1--1-----------------3--1--0-------------3----|
G|------------------0---------------2----2-------------|
D|-----------------------------------------------------|
A|-------------3---------------------------------------|
E|--x--------------------------x-------3-----x---------|

E|--------1--0-------------------0----------|
B|---------------3--1--0-------------3--1---|
G|-----2---------------------0--------------|
D|---0--------------------------------------|
A|------------------------------------------|
E|---------------x---------3-----x----------|

E|-----------0-----------------------------------------|
B|---------------3--1--0--------1h3---0--0----0--------|
G|-------0----------------2---------0--0----0----------|
D|-----------------------------------------------------|
A|---3-------------------------------------------------|
E|------------------x--------1--x----3--x--3----3------|

E|-----------------------0-------------------0---------|
B|--0h1--1--1-----------------3--1--0-------------3----|
G|------------------0---------------2----2-------------|
D|-----------------------------------------------------|
A|-------------3---------------------------------------|
E|--x--------------------------x-------3-----x---------|

E|--------1--0-------------------0----------|
B|---------------3--1--0-------------3--1---|
G|-----2---------------------0--------------|
D|---0--------------------------------------|
A|------------------------------------------|
E|---------------x---------3-----x----------|

E|-----------0-----------------------------------------|
B|---------------3--1--0--------1h3---0--0----0--------|
G|-------0----------------2---------0--0----0----------|
D|-----------------------------------------------------|
A|---3-------------------------------------------------|
E|------------------x--------1--x----3--x--3----3------|


Bridge:

E|--------0h3--3h5-------3h5---3------0h3--0----------------|
B|---1h3-------------------------------------3------1--3----|
G|----------------------------------------------------------|
D|----------------------------------------------------------|
A|-------------3--------------------------------------------|
E|---x---------------x---------1--x--------3--x--3-----x----|

E|--3--0--0---0h3--3/5-----3h5----3----------------------|
B|------------------------------------0------0-----------|
G|------------------------------------0------0-----------|
D|-----3-------------------------------------------------|
A|-------------------------------------------------------|
E|--------x--------1----x---------3----x---3------3------|


Chorus:

E|-----------0-----------------------------------------|
B|--0h1--1--1-----------------3--1--0-------------3----|
G|------------------0---------------2----2-------------|
D|-----------------------------------------------------|
A|-------------3---------------------------------------|
E|--x--------------------------x-------3-----x---------|

E|--------1--0-------------------0----------|
B|---------------3--1--0-------------3--1---|
G|-----2---------------------0--------------|
D|---0--------------------------------------|
A|------------------------------------------|
E|---------------x---------3-----x----------|

E|-----------0-----------------------------------------|
B|---------------3--1--0--------1h3---0--0----0--------|
G|-------0----------------2---------0--0----0----------|
D|-----------------------------------------------------|
A|---3-------------------------------------------------|
E|------------------x--------1--x----3--x--3----3------|

E|-----------------------0-------------------0---------|
B|--0h1--1--1-----------------3--1--0-------------3----|
G|------------------0---------------2----2-------------|
D|-----------------------------------------------------|
A|-------------3---------------------------------------|
E|--x--------------------------x-------3-----x---------|

E|--------1--0-------------------0----------|
B|---------------3--1--0-------------3--1---|
G|-----2---------------------0--------------|
D|---0--------------------------------------|
A|------------------------------------------|
E|---------------x---------3-----x----------|

E|-----------0-----------------------------------------|
B|---------------3--1--0--------1h3---0--0----0--------|
G|-------0----------------2---------0--0----0----------|
D|-----------------------------------------------------|
A|---3-------------------------------------------------|
E|------------------x--------1--x----3--x--3----3------|


Outro:

E|-----------------------------------------|
B|-------1h3----1----------3---1-----------|
G|-------0---------0-----------------------|
D|-----------------------------------------|
A|---3-------------------------------------|
E|-----------------------------------------|

E|---------------------0-----------------------|
B|-------1----1----3-----------3---1---3-------|
G|--2------------------------------------------|
D|---------------------------------------------|
A|---------------------------------------------|
E|--1---------------------3--------------------|

Other versions of Still The One

Still the oneChords
Still the one (Ver. 2)Chords

↓ Add and view comments below ↓

What do you think about this song and these tabs?

Add your comments, questions, rant or a thumbs up below.

Almost there ...

Sign in to get your own page with links to favourite songs and more. You are just one click away...

Login with Facebook Login with Google