Log in

One click and you are in

Login with Facebook Login with Google

Why sign up and log in

Guitar Tabs Explorer
Shania Twain bass tabs for No one needs to know

No One Needs To Know bass tab by Shania Twain

Shania Twain bass tabs for No one needs to know

Bass tabs

No one needs to know- Shania Twain


Tuning: Standard

 (Intro) guitars
G|----------------|----------------|----------------|
D|----------------|----------------|----------------|
A|----------------|----------------|----------------|
E|----------------|----------------|----------------|

G|----------------|-------------------------------------------|
D|----------------|-------------------------------------------|
A|----------------|---10-10------7-10-8-8---10-8-10---10---10-|
E|-------------88-|-8-------10-8----------8---------8----8----|

G|---------------------------------------------|
D|---------------------------------------------|
A|---10-10------7-10-8-8---10-8-10---10---7-11-|
E|-8-------10-8----------8---------8----8------|

G|----------------------------------------------------------------------|
D|---7-10-7---7-10-7---------------------7-10-7---7-10-7----9-12-9------|
A|-8--------8----------7-10-7---7-10-7-8--------8--------10--------10---|
E|-------------------8--------8-----------------------------------------|

G|---------------------------------------------|
D|---------------------------------------------|
A|---10-10------7-10-8-8---10-8-10---10---7-11-|
E|-8-------10-8----------8---------8----8------|

G|----------------------------------------------------------------------|
D|---7-10-7---7-10-7---------------------7-10-7---7-10-7----9-12-9------|
A|-8--------8----------7-10-7---7-10-7-8--------8--------10--------10---|
E|-------------------8--------8-----------------------------------------|

G|---------------------------------------------|
D|---------------------------------------------|
A|---10-10------7-10-8-8---10-8-10---10---7-11-|
E|-8-------10-8----------8---------8----8------|

G|----------------------------------------|
D|----------------------------------------|
A|---78-8-----78-10------78-8-----10-8-10-|
E|-8------8-8-------10-8------8-8---------|

 (interlude)
G|-------------------------------------------------------|
D|-------------------------------------------------------|
A|-------12-12-------9-12-10-10----12-10-12----12----9-7-|
E|-10-10-------10-10------------10----------10----10-----|


G|-----------------------------------------------------|
D|-----------------------------------------------------|
A|----910-10-------910-12--------910-10-------12-10-12-|
E|-10--------10-10--------12-10---------10-10----------|

 (rest)
G|----------------------|-----------------------------------------------|
D|----------------------|-----------------------------------------------|
A|-----------9-12-10-10-|----12-10-12---78-10-10----12-10-12---78-10-10-|
E|--------10------------|-10----------8----------10----------8----------|


 (Outro)
G|------------------------------------------------|
D|----------9-12-9----11-14-11--------------------|
A|----12-10--------12----------12-10-9------------|
E|-10----------------------------------12-10-9-10-|

Almost there ...

Sign in to get your own page with links to favourite songs and more. You are just one click away...

Login with Facebook Login with Google