Log in

One click and you are in

Login with Facebook Login with Google

Why sign up and log in

Guitar Tabs Explorer
Shania Twain bass tabs for Man i feel like a woman

Man I Feel Like A Woman bass tab - Shania Twain

Shania Twain bass tabs for Man i feel like a woman

Bass tabs

INTRO - ¨...scream and shout¨
G|---------------|------------|
D|---------------|------------|
A|-*Guitar Riff*-|-¨Uh!¨--1p0-|
E|---------------|------------|
VERSE 1
G|-------------------------------------|
D|-----------------------------1-1-----| X2
A|-1-1-1-1-1-1-1-1-1-1-1-1-1p0-----4-4-|
E|-------------------------------------|


PRECHORUS
G|-----------------------------------------|
D|-------------------------5-5-3-3---------|
A|-----------------1-1-1-1---------5-5-----|
E|-4-4-4-4-4-4-4-4---------------------3-3-|


CHORUS
G|-----------------|-----------------|-----------------|
D|-----------------|-----------------|---------0-0-0-0-|
A|-----------------|-----------------|--------3--------|
E|-1-1-1-1-1-1-1-1-|-1-1-1-1-1-1-1-1-|-1-1-1-1---------|

G|-----------||-----------------|-----------------|
D|-----------||-----------------|-----------------|
A|-3-1-1-1-1-||-----------------|-----------------|
E|-----------||-1-1-1-1-1-1-1-1-|-1-1-1-1-1-1-1-1-|

G|-----------------|-----------|------|
D|---------0-0-0-0-|-----------|------|
A|--------3--------|-3-1-1-1-1-|------| ¨Man, I feel like a woman!¨
E|-1-1-1-1---------|-----------|-3...-|

INTRO 2
G|---------------|-------|
D|---------------|-------|
A|-*Guitar Riff*-|-¨Uh!¨-|
E|---------------|-------|

G|--------------------------|
D|--------------------------|
A|-1-1-1-1-1-1-1-1/6-6-6-6-|
E|--------------------------|


VERSE

PRECHORUS

CHORUS


BRIDGE
G|---------|---------|-------------------|
D|-----1---|-1-1-----|-------------------|
A|---3---3-|-----3-3-|-1-1-1-1-1-1-1-0h1-|
E|-4-------|---------|-------------------|

G|---------|---------|-----------------|
D|-----1---|---------|-----------------|
A|---3---3-|-1-------|-1-1-1-1-1-----1-|
E|-4-------|---2-4-5-|-----------3-1---|


PRECHORUS
G|------------------------------------|
D|-------------------------5-5-3-3----|
A|-----------------1-1-1-1------------|
E|-4-4-4-4-4-4-4-4-----------------3#-|


CHORUS

CODA (with some variations)
G|----------------|----------------|
D|--------0-0-3-3-|----------------| X6
A|-1-1------------|-1-1------------|
E|----------------|--------3-3-1-1-|

p:  pull on
/:  slide up
:  slide down
...: let ring

TABBED BY NORBERT

Almost there ...

Sign in to get your own page with links to favourite songs and more. You are just one click away...

Login with Facebook Login with Google