Log in

One click and you are in

Login with Facebook Login with Google

Why sign up and log in

Guitar Tabs Explorer
Tv Girl bass tabs for Lovers rock

Bass tabs

Intro:

G|---------------------------------------------------------------------------|
D|--1-------------------1--3-------------------------------------------------|
A|-------------------3-------------------------------------------------------|
E|---------------------------------------------------------------------------|

G|---------------------------------------------------------------------------|
D|--1-------------------1--3-------------------------------------------------|
A|-------------------3-------------------------------------------------------|
E|---------------------------------------------------------------------------|

Verse 1:

G|---------------------------------------------------------------------------|
D|--1-------------------1--3-------------------------------------------------|
A|-------------------3-------------------------------------------------------|
E|---------------------------------------------------------------------------|

G|---------------------------------------------------------------------------|
D|--1-------------------1--3-------------------------------------------------|
A|-------------------3-------------------------------------------------------|
E|---------------------------------------------------------------------------|

G|---------------------------------------------------------------------------|
D|--3-------------------1--3-------------------------------------------------|
A|-------------------3-------------------------------------------------------|
E|---------------------------------------------------------------------------|

G|-------------------5-3-----------------------------------------------------|
D|--1----------------------55-5---3------------------------------------------|
A|---------------------------------------------------------------------------|
E|---------------------------------------------------------------------------|

G|---------------------------------------------------------------------------|
D|--1-------------------1--3-------------------------------------------------|
A|-------------------3-------------------------------------------------------|
E|---------------------------------------------------------------------------|

G|---------------------------------------------------------------------------|
D|--1-------------------1--3-------------------------------------------------|
A|-------------------3-------------------------------------------------------|
E|---------------------------------------------------------------------------|

G|---------------------------------------------------------------------------|
D|--3-------------------1--3-------------------------------------------------|
A|-------------------3-------------------------------------------------------|
E|---------------------------------------------------------------------------|

G|-------------------5-3-----------------------------------------------------|
D|--1----------------------55-5---3------------------------------------------|
A|---------------------------------------------------------------------------|
E|---------------------------------------------------------------------------|


Chorus:

G|------------3-------------3------------------------------------------------|
D|--3---3---3-----3---3---3---3----------------------------------------------|
A|---------------------------------------------------------------------------|
E|---------------------------------------------------------------------------|

G|---------------------------------------------------------------------------|
D|--1---1---1-----1---1---1---1----------------------------------------------|
A|------------3-------------3------------------------------------------------|
E|---------------------------------------------------------------------------|

G|------------3-------------3------------------------------------------------|
D|--3---3---3-----3---3---3---3----------------------------------------------|
A|---------------------------------------------------------------------------|
E|---------------------------------------------------------------------------|

G|---------------------------------------------------------------------------|
D|--1---1---1-----1---1---1---1----------------------------------------------|
A|------------3-------------3------------------------------------------------|
E|---------------------------------------------------------------------------|

G|------------3-------------3------------------------------------------------|
D|--3---3---3-----3---3---3---3----------------------------------------------|
A|---------------------------------------------------------------------------|
E|---------------------------------------------------------------------------|

G|---------------------------------------------------------------------------|
D|--1---1---1-----1---1---1---1----------------------------------------------|
A|------------3-------------3------------------------------------------------|
E|---------------------------------------------------------------------------|

G|------------3-------------3------------------------------------------------|
D|--3---3---3-----3---3---3---3----------------------------------------------|
A|---------------------------------------------------------------------------|
E|---------------------------------------------------------------------------|

G|-------------------5-3-----------------------------------------------------|
D|--1----------------------55-5---3------------------------------------------|
A|---------------------------------------------------------------------------|
E|---------------------------------------------------------------------------|


Verse 2:

G|---------------------------------------------------------------------------|
D|--1-------------------1--3-------------------------------------------------|
A|-------------------3-------------------------------------------------------|
E|---------------------------------------------------------------------------|

G|---------------------------------------------------------------------------|
D|--1-------------------1--3-------------------------------------------------|
A|-------------------3-------------------------------------------------------|
E|---------------------------------------------------------------------------|

G|---------------------------------------------------------------------------|
D|--3-------------------1--3-------------------------------------------------|
A|-------------------3-------------------------------------------------------|
E|---------------------------------------------------------------------------|

G|-------------------5-3-----------------------------------------------------|
D|--1----------------------55-5---3------------------------------------------|
A|---------------------------------------------------------------------------|
E|---------------------------------------------------------------------------|

G|---------------------------------------------------------------------------|
D|--1-------------------1--3-------------------------------------------------|
A|-------------------3-------------------------------------------------------|
E|---------------------------------------------------------------------------|

G|---------------------------------------------------------------------------|
D|--1-------------------1--3-------------------------------------------------|
A|-------------------3-------------------------------------------------------|
E|---------------------------------------------------------------------------|

G|---------------------------------------------------------------------------|
D|--3-------------------1--3-------------------------------------------------|
A|-------------------3-------------------------------------------------------|
E|---------------------------------------------------------------------------|

G|-------------------5-3-----------------------------------------------------|
D|--1----------------------55-5---3------------------------------------------|
A|---------------------------------------------------------------------------|
E|---------------------------------------------------------------------------|


Chorus:

G|------------3-------------3------------------------------------------------|
D|--3---3---3-----3---3---3---3----------------------------------------------|
A|---------------------------------------------------------------------------|
E|---------------------------------------------------------------------------|

G|---------------------------------------------------------------------------|
D|--1---1---1-----1---1---1---1----------------------------------------------|
A|------------3-------------3------------------------------------------------|
E|---------------------------------------------------------------------------|

G|------------3-------------3------------------------------------------------|
D|--3---3---3-----3---3---3---3----------------------------------------------|
A|---------------------------------------------------------------------------|
E|---------------------------------------------------------------------------|

G|---------------------------------------------------------------------------|
D|--1---1---1-----1---1---1---1----------------------------------------------|
A|------------3-------------3------------------------------------------------|
E|---------------------------------------------------------------------------|

G|------------3-------------3------------------------------------------------|
D|--3---3---3-----3---3---3---3----------------------------------------------|
A|---------------------------------------------------------------------------|
E|---------------------------------------------------------------------------|

G|---------------------------------------------------------------------------|
D|--1---1---1-----1---1---1---1----------------------------------------------|
A|------------3-------------3------------------------------------------------|
E|---------------------------------------------------------------------------|

G|------------3-------------3------------------------------------------------|
D|--3---3---3-----3---3---3---3----------------------------------------------|
A|---------------------------------------------------------------------------|
E|---------------------------------------------------------------------------|

G|-------------------5-3-----------------------------------------------------|
D|--1----------------------55-5---3------------------------------------------|
A|---------------------------------------------------------------------------|
E|---------------------------------------------------------------------------|


Bridge:

G|-------------------5-3-----------------------------------------------------|
D|--1----------------------55-5---3------------------------------------------|
A|---------------------------------------------------------------------------|
E|---------------------------------------------------------------------------|

G|-------------------5-3-----------------------------------------------------|
D|--1----------------------55-5---3------------------------------------------|
A|---------------------------------------------------------------------------|
E|---------------------------------------------------------------------------|


Chorus:

G|------------3-------------3------------------------------------------------|
D|--3---3---3-----3---3---3---3----------------------------------------------|
A|---------------------------------------------------------------------------|
E|---------------------------------------------------------------------------|

G|---------------------------------------------------------------------------|
D|--1---1---1-----1---1---1---1----------------------------------------------|
A|------------3-------------3------------------------------------------------|
E|---------------------------------------------------------------------------|

G|------------3-------------3------------------------------------------------|
D|--3---3---3-----3---3---3---3----------------------------------------------|
A|---------------------------------------------------------------------------|
E|---------------------------------------------------------------------------|

G|---------------------------------------------------------------------------|
D|--1---1---1-----1---1---1---1----------------------------------------------|
A|------------3-------------3------------------------------------------------|
E|---------------------------------------------------------------------------|

G|------------3-------------3------------------------------------------------|
D|--3---3---3-----3---3---3---3----------------------------------------------|
A|---------------------------------------------------------------------------|
E|---------------------------------------------------------------------------|

G|---------------------------------------------------------------------------|
D|--1---1---1-----1---1---1---1----------------------------------------------|
A|------------3-------------3------------------------------------------------|
E|---------------------------------------------------------------------------|

G|------------3-------------3------------------------------------------------|
D|--3---3---3-----3---3---3---3----------------------------------------------|
A|---------------------------------------------------------------------------|
E|---------------------------------------------------------------------------|

G|-------------------5-3-----------------------------------------------------|
D|--1----------------------55-5---3------------------------------------------|
A|---------------------------------------------------------------------------|
E|---------------------------------------------------------------------------|




Outro:

G|---------------------------------------------------------------------------|
D|--1------------------------------------------------------------------------|
A|---------------------------------------------------------------------------|
E|---------------------------------------------------------------------------|

Almost there ...

Sign in to get your own page with links to favourite songs and more. You are just one click away...

Login with Facebook Login with Google