Log in

One click and you are in

Login with Facebook Login with Google

Why sign up and log in

Guitar Tabs Explorer
Tarja Turunen tabs for Lost northern star

Guitar tabs

Song name: Lost Northern Star
Tabbed by: mikimixx

Tuning: drop A chord diagramE MajorE to A chord diagramD MajorD so all string are like this: A chord diagramD MajorD A chord diagramA augmentedA A chord diagramD MajorD A chord diagramG+G A chord diagramBB A chord diagramE MajorE

Intro
----------------------------------------------------------------
----------------------------------------------------------------
----------------------------------------------------------------
---7--7----7-7--7-7---------------------------------------------
---5--5----5-5--5-5---------------------------------------------
---0--6----0-0--0-0---------------------------------------------

			   I'm the one who leads your shadows...
----------------------------------------------------------------
----------------------------------------------------------------
----------------------------------------------------------------
---7--7--7-7---7-7---8------------------------------------------
---5--5--6~5---5-5---5------------------------------------------
---0--0--------0-0----------------------------------------------


 O..ouh
----------------------------------------------------------------
----------------------------------------------------------------
----------------------------------------------------------------
--7-------7-7--7-7---8-7-------7--------7-7--7-7----8-----------
--5-------5-6--6~5---6-5-------5--------5-6--6~5----6-----------
--0-0-0-0-0-0-----0--0-0-------0--0-0-0-0-0--0-0-0--------------


Lost northern....star	    Buried... in... sorrow
-----------------------------------------------------------------
-----------------------------------------------------------------
-----5---------------7---------9-------10---3--------------------
-----5---------------7---------9-------10---3-------------1-0----
-2-2-3-----------4-4-5-----6-6-7-------8----1------0-1-0-1---0-1-
-----------------------------------------------------------------
  2X              4X          2x

I'll guard your...mind
-----------------------------------------------------------------
-----------------------------------------------------------------
-----5---------------7---------9-------10---3--------------------
-----5---------------7---------9-------10---3-------------1-0----
-2-2-3-----------4-4-5-----6-6-7-------8----1------0-1-0-1---0-1-
-----------------------------------------------------------------
  2X              4X          2x


 O..ouh
-----------------------------------------------------------------
-----------------------------------------------------------------
-----------------------------------------------------------------
--7-------7-7--7-7---8-7-------7--------7-7--7-7----8------------
--5-------5-6--6~5---6-5-------5--------5-6--6~5----6------------
--0-0-0-0-0-0-----0--0-0-------0--0-0-0-0-0--0-0-0---------------


Where the calm fields (bass line)
-----------------------------------------------------------------
-----------------------------------------------------------------
-----------------------------------------------------------------
-5---------------------------------------------------------------
-3---------------------------------------------------------------
-----------------------------------------------------------------

 Lost northern..star        Buried in.... sorrow
-----------------------------------------------------------------
-----------------------------------------------------------------
-----------------------------7------9-----3----------------------
----------------5----5-------7------9-----3------------1-0-------
-4-4-4-3--4-----3----3---4-4-5------7-----1-----0-1-0-1---0-1----
-4-4-4-4--4-------2-2--------------------------------------------


I'll guard your...mind
-----------------------------------------------------------------
-----------------------------------------------------------------
-----5---------------7---------9-------10---3--------------------
-----5---------------7---------9-------10---3-------------1-0----
-2-2-3-----------4-4-5-----6-6-7-------8----1------0-1-0-1---0-1
-----------------------------------------------------------------
  2X              4X          2x

 O..ouh
-----------------------------------------------------------------
-----------------------------------------------------------------
---------------------------------------------------------7-------
--7-------7-7--7-7---8-7-------7--------7-7--7-7----8----7-------
--5-------5-6--6~5---6-5-------5--------5-6--6~5----6----5-------
--0-0-0-0-0-0-----0--0-0-------0--0-0-0-0-0--0-0-0-------0-------



Solo is done in D, play around on d-string in this beat:

0000-3-00-5-00-3-0-3-2

Then come up with your own solo.... Thereafter, hit chords fully


 Lost northern..star        Buried in.... sorrow
-----------------------------------------------------------------
-----------------------------------------------------------------
-----------------------------7------9-----3----------------------
----------------5----5-------7------9-----3------------1-0-------
-4-4-4-3--4-----3----3---4-4-5------7-----1-----0-1-0-1---0-1----
-4-4-4-4--4-------2-2--------------------------------------------


I'll guard your...mind
-----------------------------------------------------------------
-----------------------------------------------------------------
-----5---------------7---------9-------10---3------------------7-
-----5---------------7---------9-------10---3-----------1-0----7-
-2-2-3-----------4-4-5-----6-6-7-------8----1----0-1-0-1---0-1-5-
---------------------------------------------------------------0-
  2X              4X          2x


   My soul burns
-----------------------------------------------------------------
-----------------------------------------------------------------
---7-------------------------------------------------------------
---7-------------------------------------------------------------
---5-------------------------------------------------------------
---0-------------------------------------------------------------

Almost there ...

Sign in to get your own page with links to favourite songs and more. You are just one click away...

Login with Facebook Login with Google