You Baby by The Turtles

You Baby bass tab by The Turtles

Bass tabs

Tuning: EADG

G|----------------------------------------------------------------|
D|----------------------------------------------------3---1-------|
A|------------------------------------------------------------4---|
E|----------------------------------------------------------------|

G|----------------------------------------------------------------|
D|----------------0---------------1-------------------------------|
A|1-------------------------------------------1-------------------|
E|----------------------------------------------------------------|

G|----------------------------------------------------------------|
D|----------------0---------------3---1---------------------------|
A|1-------------------------------------------1-------------------|
E|----------------------------------------------------------------|

0:10

G|----------------------------------------------------------------|
D|----------------0-----------0---1-----------1---3-------3---3---|
A|1-----------1---------------------------------------------------|
E|----------------------------------------------------------------|

G|----------------------------------------------------------------|
D|----------------0-----------0---1-----------1---3---------------|
A|1-----------1---------------------------------------------------|
E|----------------------------------------------------------------|

G|----------------------------------------------------------------|
D|----------------0-----------0---1-----------1---3-------3---3---|
A|1-----------1---------------------------------------------------|
E|----------------------------------------------------------------|

G|----------------------------------------------------------------|
D|----------------0---------------3---3---------------------------|
A|1-----------1---------------------------3---1-----------3-------|
E|----------------------------------------------------------------|



G|----------------------------------------------------------------|
D|0-----------0---0-----------------------------------------------|
A|----------------------------1---3-----------3---3-----------3---|
E|----------------------------------------------------------------|

G|----------------------------------------------------------------|
D|1-----------1---1---------------3---3---3---3---3---3---3-------|
A|----------------------------------------------------------------|
E|----------------------------------------------------------------|

0:32

G|----------------------------------------------------------------|
D|----------------1-----------1---3-----------3---1---------------|
A|1-----------1-------------------------------------------3-------|
E|----------------------------------------------------------------|

G|----------------------------------------------------------------|
D|----------------1---------------3---3---------------------------|
A|1-----------1---------------------------3---1-------------------|
E|----------------------------------------------------------------|

G|----------------------------------------------------------------|
D|----------------1-----------1---3-----------3---1---------------|
A|1-----------1-------------------------------------------3-------|
E|----------------------------------------------------------------|

G|----------------------------------------------------------------|
D|----------------1-----------1---3---3---------------------------|
A|1-----------1---------------------------3---1-------------------|
E|----------------------------------------------------------------|

0:45

G|----------------------------------------------------------------|
D|----------------------------------------------------3---1-------|
A|------------------------------------------------------------4---|
E|----------------------------------------------------------------|

G|----------------------------------------------------------------|
D|----------------0---------------1-------------------------------|
A|1-------------------------------------------1-------------------|
E|----------------------------------------------------------------|

G|----------------------------------------------------------------|
D|----------------0---------------3---1---------------------------|
A|1-------------------------------------------1-------------------|
E|----------------------------------------------------------------|

0:57

G|----------------------------------------------------------------|
D|----------------0-----------0---1-----------1---3-------3---3---|
A|1-----------1---------------------------------------------------|
E|----------------------------------------------------------------|

G|----------------------------------------------------------------|
D|----------------0-----------0---1-----------1---3-----------3---|
A|1-----------1---------------------------------------------------|
E|----------------------------------------------------------------|

G|----------------------------------------------------------------|
D|----------------0-----------0---1-----------1---3-------3---3---|
A|1-----------1---------------------------------------------------|
E|----------------------------------------------------------------|

G|----------------------------------------------------------------|
D|----------------0---------------3-------------------------------|
A|1-----------1---------------------------3---1-----------3-------|
E|----------------------------------------------------------------|

1:11

G|----------------------------------------------------------------|
D|0-----------0---0-----------------------------------------------|
A|----------------------------1---3-----------3---3-----------3---|
E|----------------------------------------------------------------|

G|----------------------------------------------------------------|
D|1-----------1---1---------------3---3---3---3---3---3---3-------|
A|----------------------------------------------------------------|
E|----------------------------------------------------------------|

1:18

G|----------------------------------------------------------------|
D|----------------1-----------1---3-----------3---1---------------|
A|1-----------1-------------------------------------------3-------|
E|----------------------------------------------------------------|

G|----------------------------------------------------------------|
D|----------------1-----------1---3---3---------------------------|
A|1-----------1---------------------------3---1-------------------|
E|----------------------------------------------------------------|

G|----------------------------------------------------------------|
D|----------------1-----------1---3-----------3---1---------------|
A|1-----------1-------------------------------------------3-------|
E|----------------------------------------------------------------|

G|----------------------------------------------------------------|
D|----------------1-----------1---3---3---------------------------|
A|1-----------1---------------------------3---1---------------0---|
E|----------------------------------------------------------------|

1:32

G|----------------------------------------------------------------|
D|----------------------------------------------------------------| x2
A|1---1---1---1---1---1---1---1---1---1---1---1---1---1---1---1---|
E|----------------------------------------------------------------|

G|----------------------------------------------------------------|
D|1---1---1---1---1---1---1---------------------------------------|
A|----------------------------0---1---1---1---1---1---1---1---1---|
E|----------------------------------------------------------------|

G|----------------------------------------------------------------|
D|----------------------------------------------------------------|
A|1---1---1---1---1---1---1---1---1---1---1---1---1---1---1-------|
E|----------------------------------------------------------------|

G|----------------------------------------------------------------|
D|------------0-------------------1-----------3-------3---3---3---|
A|3---------------------------------------------------------------|
E|----------------------------------------------------------------|

G|------------------------------------------------|
D|3---3---3---3---3---3---3---3---3---------------|
A|------------------------------------------------|
E|------------------------------------------------|

1:53

G|----------------------------------------------------------------|
D|----------------1-----------1---3-----------3---1---------------|
A|1-----------1-------------------------------------------3-------|
E|----------------------------------------------------------------|

G|----------------------------------------------------------------|
D|----------------1---------------3---3---------------------------|
A|1-----------1---------------------------3---1-------------------|
E|----------------------------------------------------------------|

G|----------------------------------------------------------------|
D|----------------1-----------1---3-----------3---1---------------|
A|1-----------1-------------------------------------------3-------|
E|----------------------------------------------------------------|

G|----------------------------------------------------------------|
D|----------------1-----------1---3---3---------------------------|
A|1-----------1---------------------------3---1-------------------|
E|----------------------------------------------------------------|

G|----------------------------------------------------------------|
D|----------------1-----------1---3-----------3---1---------------|
A|1-----------1-------------------------------------------3-------|
E|----------------------------------------------------------------|

G|------------------------------------------------|
D|----------------1---------------3---3-----------|
A|1-----------1---------------------------3---1---|

Find guitar tabs and chords

A B C D E F G H I J K L M N O P Q R S T U V W X Y Z #