To See The Sun by The Turtles

To See The Sun chords by The Turtles

Guitar chords with lyrics

Tuning: Standard tuning


SONG:  TO SEE THE SUN
ARTIST: THE TURTLES
VIDEO: https://youtu.be/4mugz8sjCDs
TAB BY: DON CZARSKI
EMAIL: GUITARZAN7@HOTMAIL.COM


       TO SEE THE SUN
        THE TURTLES

INTRO:

   Am  Am  Am  Am  Am Am  Am  Am
E ----0----0----0----0----0----0----0----0--
B ----1----1----1----1----1----1----1----1--
G ----2--2------2--2------2--2------2--2----
D --2--------2---------2---------2----------
A ------------------------------------------
E ------------------------------------------
            Ooooooohhh Ooooooohhh

   Am  Am  Am  Am  Am Am  Am  Am  Am Am
E ----0----0----0----0----0----0----0----0---0----0--
B ----1----1----1----1----1----1----1----1---1----1--
G ----2--2------2--2------2--2------2--2-----2--2----
D --2--------2---------2---------2---------2---------
A ---------------------------------------------------
E ---------------------------------------------------
  Oooooooooooohhhh Ooooooooooooohhhhh Ooohhh Oooohhh


VERSE:
 Am    Em
Some day soon
 Am           G
When we've been to the moon
Fmaj7       E
You will see the sun


VERSE:
Am   Em
We can wait
 Am         G
Hurry 'til it's too late
Fmaj7        E
Call him when we're done


BREAK:
C Em Am
He is very very young


(N.C.)   Fmaj7
To see the sun
                C
La la la la la la la la la la la la la
      Fmaj7
To see the sun
               C     Dm E Dm E Dm E
La la la la la la la la la la la la la


VERSE:
Am    Em
Now he cries
Am           G
Man with tears in his eyes
Fmaj7     E
Gazing at the sky


VERSE:
Am    Em
Now he's done
Am        G
No desire to go on
Fmaj7     E
Never saw the sun

Ahhhhhhhhhhhhhh


INSTRUMENTAL:
Fmaj7 Am Em Em
Fmaj7 Am Em Em
Dm E Dm E Dm E
Dm E Dm E Dm E


   Am  Am  Am  Am  Am Am  Am  Am
E ----0----0----0----0----0----0----0----0--
B ----1----1----1----1----1----1----1----1--
G ----2--2------2--2------2--2------2--2----
D --2--------2---------2---------2----------
A ------------------------------------------
E ------------------------------------------
 Oooooohhhh Oooooohhhhh Ooooooohhhh Oooohh

   Am  Am  Am  Am  Am Am
E ----0----0----0----0----0----0-
B ----1----1----1----1----1----1-
G ----2--2------2--2------2--2---
D --2--------2---------2---------
A -------------------------------
E -------------------------------
 Oooooooohhhhh Oooh


VERSE:
 Am    Em
Some day soon
 Am           G
When we've been to the moon
Fmaj7       E
And we'll see the sun


VERSE:
C Em Am
I am very very young
C Em Am
I am very very young
C Em
I am
 Am
very very very very
very very very very
 Abm
very very very very
very very very very


BREAK/INSTRUMENTAL:
Em Em  Em D  C B B
Em Em  Em D  C B B B B B B B
Em Em  Em D  C B B


OUTRO:

  B
E ------------------
B ------------------
G ------------------
D ----4---4---4--4-- ETC. - TO FADE OUT
A --2---2---2---2---
E ------------------

To See The Sun chords

The Turtles chords for To see the sun "To see the sun" is a released bu US rockers The Turtles in 1978.

Find guitar tabs and chords

A B C D E F G H I J K L M N O P Q R S T U V W X Y Z #