Tie Me Down by The Turtles

Tie Me Down chords by The Turtles

Guitar chords with lyrics

  • Tuning: Standard tuning
  • Difficulty: Beginner
SONG:  TIE ME DOWN
ARTIST: THE TURTLES
VIDEO: https://youtu.be/bWzRuYFgfDg
TAB BY: DON CZARSKI
EMAIL: GUITARZAN7@HOTMAIL.COM


             TIE ME DOWN
             THE TURTLES


INTRO:
  E D B A G E  E D B A G E  E D B A G E
E ---------------|---------------|---------------|
B -5-3-----------|-5-3-----------|-5-3-----------|
G -----4-2-------|-----4-2-------|-----4-2-------|
D ---------5br-2-|---------5br-2-|---------5br-2-|
A ---------------|---------------|---------------|
E ---------------|---------------|---------------|


VERSE:
 E    D        E
I`ll be leavin` with the mornin` sun
E     D        B
My girl`s tellin` me that I`m the one
 A     D          E
She hears weddin` bells, it`s time to run


CHORUS:
         D A  E
She`s tryin` to tie me down
        D A  E
No one`s gonna tie me down


VERSE:
 E     D       E
Folks keep tellin` me to plant my roots
 E   D        B
Find a job and buy some mohair suits
 A      D     E
Just `cause everybody else commutes


CHORUS:
          D A  E
They`re tryin` to tie me down
        D A  E
No one`s gonna tie me down


BREAK:
D
I feel helpless
           E
Yes I feel like the wind in movin` trees
D
If it`s shiftin`
     A
I`ll be driftin`
  E  D  A  B
And go where I please


VERSE:
 E    D        E
I`ll be leaving with the mornin` dew
 E     D        B
Won`t stop runnin` `til my days are through
  A   D       E
And if I happen to meet up with you


CHORUS:
       D A  E
Don`t try to tie me down
        D A  B
No one`s gonna tie me down


  E D B A G E  E D B A G E
E ---------------|---------------|
B -5-3-----------|-5-3-----------|
G -----4-2-------|-----4-2-------|
D ---------5br-2-|---------5br-2-|
A ---------------|---------------|
E ---------------|---------------|


INSTRUMENTAL:
E D E  E D B

  A   D       E
And If I happen to meet up with you


CHORUS:
       D A  E
Don`t try to tie me down


OUTRO:
        D A  E
No one`s gonna tie me down
 D A  E
Tie me down

        D A  E
No one`s gonna tie me down
 D A  E
Tie me down

        D A  E
No one`s gonna tie me down
 D A  E
Tie me down - FADE OUT

Find guitar tabs and chords

A B C D E F G H I J K L M N O P Q R S T U V W X Y Z #