I Can't Stop by The Turtles

I Can't Stop bass tab by The Turtles

Bass tabs

Tuning: EADG

0:04

G|----------------------------------------------------------------|
D|2---4---2---4---2---4---2---4---2---4---2---4---2---4---2---4---|
A|----------------------------------------------------------------|
E|----------------------------------------------------------------|

0:08

G|----------------------------------------------------------------|
D|----------------------------------------------------1-------2---|
A|2-------2-------2-------2-------2-------2-------2---------------|
E|------------2---------------2---------------2-------------------|

G|----------------------------------------------------------------|
D|4-------4-------4-------4-------4-------4-------4-------4-------|
A|------------4---------------4---------------4---------------4---|
E|----------------------------------------------------------------|

G|----------------------------------------------------------------|
D|2-------2-------2-------2-------4-------4-------4-------4-------|
A|------------2---------------2---------------4---------------4---|
E|----------------------------------------------------------------|

G|----------------------------------------------------------------|
D|--------------------------------2---2---1---2---4---4---2-------|
A|2-------2-------2-------2-----------------------------------4---|
E|------------2---------------2-----------------------------------|

0:21

G|----------------------------------------------------------------|
D|----------------------------------------------------1-------2---|
A|2-------2-------2-------2-------2-------2-------2---------------|
E|------------2---------------2---------------2-------------------|

G|----------------------------------------------------------------|
D|4-------4-------4-------4-------4-------4-------4-------4-------|
A|------------4---------------4---------------4---------------4---|
E|----------------------------------------------------------------|

G|----------------------------------------------------------------|
D|2-------2-------2-------2-------4-------4-------4-------4-------|
A|------------2---------------2---------------4---------------4---|
E|----------------------------------------------------------------|

G|----------------------------------------------------------------|
D|----------------------------------------------------------------|
A|2-------2-------2-------2-------2-------2-------4-------5-------|
E|------------2---------------2-----------------------------------|

0:36

G|----------------------------------------------------------------|
D|--------------------------------------------------------4---5---|
A|6-------6-------6-------6-------6-------6-------6---------------|
E|------------6---------------6---------------6-------------------|

G|----------------------------------------------------------------|
D|6-----------4---------------------------------------6-------5---|
A|--------------------6-------5---4-------------------------------|
E|--------------------------------------------4-------------------|

G|----------------------------------------------------------------|
D|4-------4-------4-------4-------4-------4-------4-------4-------|
A|------------4---------------4---------------4---------------4---|
E|----------------------------------------------------------------|

G|----------------------------------------------------------------|
D|4-------4-------4-------4-------4---4---2-------1---------------|
A|------------4---------------4---------------------------4-------|
E|----------------------------------------------------------------|

0:48

G|----------------------------------------------------------------|
D|----------------------------------------------------1-------2---|
A|2-------2-------2-------2-------2-------2-------2---------------|
E|------------2---------------2---------------2-------------------|

G|----------------------------------------------------------------|
D|4-------4-------4-------4-------4-------4-------4-------4-------|
A|------------4---------------4---------------4---------------4---|
E|----------------------------------------------------------------|

G|----------------------------------------------------------------|
D|2-------2-------2-------2-------4-------4-------4-------4-------|
A|------------2---------------2---------------4---------------4---|
E|----------------------------------------------------------------|

G|----------------------------------------------------------------|
D|--------------------------------2---2---1---2---4---4---2-------|
A|2-------2-------2-------2-----------------------------------4---|
E|------------2---------------2-----------------------------------|

1:02

G|----------------------------------------------------------------|
D|----------------------------------------------------1-------2---|
A|2-------2-------2-------2-------2-------2-------2---------------|
E|------------2---------------2---------------2-------------------|

G|----------------------------------------------------------------|
D|4-------4-------4-------4-------4-------4-------4-------4-------|
A|------------4-------------------------------4---------------4---|
E|----------------------------------------------------------------|

G|----------------------------------------------------------------|
D|2-------2-------2---1---2---3---4-------4---4---2---4---2-------|
A|------------2-----------------------------------------------4---|
E|----------------------------------------------------------------|

G|----------------------------------------------------------------|
D|--------------------------------2---2---1---2---4-------2-------|
A|2-------2-------2-------2---------------------------------------|
E|------------2---------------------------------------------------|

1:16

G|----------------------------------------------------------------|
D|----------------------------------------------------1-------2---|
A|2-------2-------2-------2-------2-------2-------2---------------|
E|------------2---------------2---------------2-------------------|

G|----------------------------------------------------------------|
D|4-------4-------4-------4-------4-------4-------4-------4-------|
A|------------4---------------4---------------4---------------4---|
E|----------------------------------------------------------------|

G|----------------------------------------------------------------|
D|2-------2-------2-------2-------4-------4-------4-------4-------|
A|------------2---------------2---------------4---------------4---|
E|----------------------------------------------------------------|

G|----------------------------------------------------------------|
D|----------------------------------------------------------------|
A|2-------2-------2-------2-------2-------2-------4-------5-------|
E|------------2---------------2-----------------------------------|

1:30

G|----------------------------------------------------------------|
D|--------------------------------------------------------4---5---|
A|6-------6-------6-------6-------6-------6-------6---------------|
E|------------6---------------6---------------6-------------------|

G|----------------------------------------------------------------|
D|6-----------4---------------------------------------6-------5---|
A|--------------------6-------5---4-------------------------------|
E|--------------------------------------------4-------------------|

G|----------------------------------------------------------------|
D|4-------4-------4-------4-------4-------4-------4-------4-------|
A|------------4---------------4---------------4---------------4---|
E|----------------------------------------------------------------|

G|----------------------------------------------------------------|
D|4-------4-------4-------4-------4-------2-------1---------------|
A|------------4-------------------------------------------4-------|
E|----------------------------------------------------------------|

1:46

G|----------------------------------------------------------------|
D|----------------------------------------------------1-------2---|
A|2-------2-------2-------2-------2-------2-------2---------------|
E|------------2---------------2---------------2-------------------|

G|----------------------------------------------------------------|
D|4-------4-------4-------4-------4-------2-------4---2-----------|
A|------------4---------------4---------------------------4-------|
E|----------------------------------------------------------------|

G|----------------------------------------------------------------|
D|----------------------------------------------------1-------2---|
A|2-------2-------2-------2-------2-------2-------2---------------|
E|------------2---------------2---------------2-------------------|

G|----------------------------------------------------------------|
D|4-------4-------4-------4-------4---4---2-------1---------------|
A|------------4---------------4---------------------------4-------|
E|----------------------------------------------------------------|

G|----------------------------------------------------------------|
D|----------------------------------------------------1-------2---| fades out here.
A|2-------2-------2-------2-------2-------2-------2---------------|

Find guitar tabs and chords

A B C D E F G H I J K L M N O P Q R S T U V W X Y Z #