Happy Together by The Turtles

Happy Together bass tab by The Turtles

Bass tabs

t/turtles/happy_together.btab

Basstab by Jan Bjorklund, Finland;
jani_bjorklund@yahoo.se
You are welcome to request for basstabs!
Bienvenidos a pedirme transcripciones para el bajo!
Be sure to use a monospaced font!

TablEdited by Jan Bjorklund
Tuning : E A D G 	Time Signature: 4/4

 tempo 120    |        |        |
|----------------------------------------------------------------|
|----------------------------------------------------------------|
|----------------------------------------------------------------|
|----------------------------------------------------------------|

 |        |        |        |
|----------------------------------------------------------------|
|----------------------------------------------------------------|
|----------------------------------------------------------------|
|----------------------------------------------------------------|

 |        |        |        |
|----------------------------------------------------------------|
|----------------------------------------------------------------|
|----------------------------------------------------------------|
|2---------------2---------------2---------------2---------------|

 |        |        |     Imagine
|----------------------------------------------------------------|
|----------------------------------------------------------------|
|----------------------------------------------------------------|
|2---------------2---------------2---------------2---------------|

 me and you...  |        |        |
|----------------------------------------------------------------|
|----------------------------------------------------------------|
|----------------------------------------------------------------|
|2---------------2---------------2---------------2---------------|

 |        |        |        |
|----------------------------------------------------------------|
|----------------------------------------------------------------|
|----------------------------------------------------------------|
|2---------------2---------------2---------------2/------7-------|

 |        |        |        |
|----------------------------------------------------------------|
|----------------------------------------------------------------|
|7---------------7---------------7---------------7---------------|
|----------------------------------------------------------------|

 |        |        |        |
|----------------------------------------------------------------|
|----------------------------------------------------------------|
|7---------------7---------------7---------------7---------------|
|----------------------------------------------------------------|

 |        |        |        |
|----------------------------------------------------------------|
|----------------------------------------------------------------|
|5---------------5---------------5---------------5---------------|
|----------------------------------------------------------------|

 ...thight,   |  so     |       happy     toge
|----------------------------------------------------------------|
|----------------------------------------------------------------|
|5---------------5---------------5---------------5---------------|
|----------------------------------------------------------------|

 |        |        |        |
|----------------------------------------------------------------|
|----------------------------------------------------------------|
|4---------------4---------------4---------------4---------------|
|----------------------------------------------------------------|

 |        |        |    If I shuold
|----------------------------------------------------------------|
|----------------------------------------------------------------|
|4---------------4---------------4---------------4---------------|
|----4-------------------------------4---------------------------|

 call you up... |        |        |
|----------------------------------------------------------------|
|----------------------------------------------------------------|
|----------------------------------------------------------------|
|2---------------2---------------2---------------2---------------|

 |        |        |        |
|----------------------------------------------------------------|
|----------------------------------------------------------------|
|----------------------------------------------------------------|
|2---------------2---------------2---------------2/------7-------|

 |        |        |        |
|----------------------------------------------------------------|
|----------------------------------------------------------------|
|7---------------7---------------7---------------7---------------|
|----------------------------------------------------------------|

 |        |        |        |
|----------------------------------------------------------------|
|----------------------------------------------------------------|
|7---------------7---------------7---------------7---------------|
|----------------------------------------------------------------|

 |        |        |        |
|----------------------------------------------------------------|
|----------------------------------------------------------------|
|5---------------5---------------5---------------5---------------|
|----------------------------------------------------------------|

 |        |        |        |
|----------------------------------------------------------------|
|----------------------------------------------------------------|
|5---------------5---------------5---------------5---------------|
|----------------------------------------------------------------|

 |        |        |        |
|----------------------------------------------------------------|
|----------------------------------------------------------------|
|4---------------4---------------4---------------4---------------|
|----------------------------------------------------------------|

 |        |        |        |
|----------------------------------------------------------------|
|----------------------------------------------------------------|
|4---------------4---------------4---------------4---------------|
|----------------------------------------------------------------|

 I        |   can't  |       see
|----------------------------------------------------------------|
|4---------------4---------------4---------------4---------------|
|----------------------------------------------------------------|
|----------------------------------------------------------------|

 loving     |   no-   |      body     but
|----------------------------------------------------------------|
|----------------------------------------------------------2-----|
|4---------------4---------------4---------------4---------------|
|----------------------------------------------------------------|

 you       |        | for     all   my
|----------------------------------------------------------------|
|4---------------4---------------4---------------2---------------|
|----------------------------------------------------------4-----|
|----------------------------------------------------------------|

 life      |        |        |
|----------------------------------------------------------------|
|----------------------------------------------------------2-----|
|0---------------0---------------0---------------4---------------|
|----------------------------------------------------------------|

 |        |        |        |
|----------------------------------------------------------------|
|4---------------4---------------4---------------4---------2-----|
|----------------------------------------------------------------|
|----------------------------------------------------------------|

 |        |        |        |
|----------------------------------------------------------------|
|----------------------------------------------------------2-----|
|4---------------4---------------4---------------4---------------|
|----------------------------------------------------------------|

 |        |        |        |
|----------------------------------------------------------------|
|4---------------4---------------4---------------4---------------|
|----------------------------------------------------------4-----|
|----------------------------------------------------------------|

 |        |        |        |
|----------------------------------------------------------------|
|----------------------------------------------------------------|
|0---------------0---------------0---------------0---------4-----|
|----------------------------------------------------------------|

 Me and you, and you and     |        |
|----------------------------------------------------------------|
|----------------------------------------------------------------|
|----------------------------------------------------------------|
|2---2-----------2---------------2---------------2---------------|

 |        |        |        |
|----------------------------------------------------------------|
|----------------------------------------------------------------|
|----------------------------------------------------------------|
|2---------------2---------------2---------------2/------7-------|

 |        |        |        |
|----------------------------------------------------------------|
|----------------------------------------------------------------|
|7---------------7---------------7---------------7---------------|
|----------------------------------------------------------------|

 |        |        |        |
|----------------------------------------------------------------|
|----------------------------------------------------------------|
|7---------------7---------------7---------------7---------------|
|----------------------------------------------------------------|

 |        |        |        |
|----------------------------------------------------------------|
|------------------   and so on until... ---------------------|
|----------------------------------------------------------------|
|----------------------------------------------------------------|



 Me and you,           |       and you and
|----------------------------------------------------------------|
|4---------------4---------------4---------------4---------------|
|----------------------------------------------------------------|
|----------------------------------------------------------------|

 me...      |        |        |
|----------------------------------------------------------------|
|4---------------4---------------4---------------4---------------|
|----------------------------------------------------------------|
|----------------------------------------------------------------|

 |        |        |        |
|----------------------------------------------------------------|
|----------------------------------------------------------------|
|7---------------7---------------7---------------7---------------|
|----------------------------------------------------------------|

 |        |        |        |
|----------------------------------------------------------------|
|----------------------------------------------------------------|
|7---------------7---------------7---------------7---------4-----|
|----------------------------------------------------------------|

 |        |        |        |
|----------------------------------------------------------------|
|----------------------------------------------------------------|
|5---------------5---------------5---------------5---------------|
|----------------------------------------------------------------|

 |        |    So   | happy     |   to-
|----------------------------------------------------------------|
|----------------------------------------------------------------|
|5---------------5---------------5---------------5---------------|
|----------------------------------------------------------------|

 gether     |        |        |
|----------------------------------------------------------------|
|----------------------------------------------------------------|
|4---------------4---------------4---------------4---------------|
|----------------------------------------------------------------|

 |        |    so   | happy     |   to-
|----------------------------------------------------------------|
|4---------------4---------------4---------------4---------------|
|----------------------------------------------------------------|
|----------------------------------------------------------------|

 gether     |        |        |
|----------------------------------------------------------------|
|----------------------------------------------------------------|
|4---------------4---------------4---------------4---------------|
|----------------------------------------------------------------|

 |        |        How    is  |    the
|----------------------------------------------------------------|
|4---------------4---------------4---------------4---------------|
|----------------------------------------------------------2-----|
|----------------------------------------------------------------|

 | weather    |        |        |
|----------------------------------------------------------------|
|----------------------------------------------------------2-----|
|4---------------4---------------4---------------4---------------|
|----------------------------------------------------------------|

 |        |    so   | happy     |   to-
|----------------------------------------------------------------|
|4---------------4---------------4---------------4---------------|
|----------------------------------------------------------2-----|
|----------------------------------------------------------------|

 gether     |        |        |
|----------------------------------------------------------------|
|----------------------------------------------------------2-----|
|4---------------4---------------4---------------4---------------|
|----------------------------------------------------------------|

 |        |     We're |    happy  |   to-
|----------------------------------------------------------------|
|4---------------4---------------4---------------4---------------|
|----------------------------------------------------------2-----|
|----------------------------------------------------------------|

 gether     |        |        |
|----------------------------------------------------------------|
|----------------------------------------------------------2-----|
|4---------------4---------2-----4---------------4---------------|
|----------------------------------------------------------------|

 |        |    so   | happy     |   to-
|----------------------------------------------------------------|
|4---------------4---------------4---------------4---------------|
|--------------------------7-------------------------------------|
|----------------------------------------------------------7-----|

 gether ......  |        |        |
|----------------------------------------------------------------|
|----------------------------------------------------------2-----|
|4---------------4---------2-----4---------------4---------------|
|----------------------------------------------------------------|

 |        |        |        |
|----------------------------------------------------------------|
|4---------------4---------------4---------------4---------------|
|--------------------------7-------------------------------------|
|----------------------------------------------------------7-----|

 |        |        |        |
|----------------------------------------------------------------|
|----------------------------------------------------------2-----|
|4---------2-----4---------2-----4---------2-----4---------------|
|----------------------------------------------------------------|

 |        |        |        |
|----------------------------------------------------------------|
|4---------------4---------------4---------------4---------------|
|----------7---------------7---------------7---------------------|
|----------------------------------------------------------7-----|

 |        |        |        |
|----------------------------------------------------------------|
|----------------------------------------------------------2-----|
|4---------2-----4---------2-----4---------2-----4---------------|
|----------------------------------------------------------------|

 |        |        |        |
|----------------------------------------------------------------|
|4---------------4---------------4---------------4---------------|
|----------7---------------7---------------7---------------------|
|----------------------------------------------------------7-----|

 |        |        |        |
|----------------------------------------------------------------|
|----------------------------------------------------------2-----|
|4---------2-----4---------2-----4---------2-----4---------------|
|----------------------------------------------------------------|

 |        |        |        |
|----------------------------------------------------------------|
|4---------------------------------------------------------------|
|----------------------------------------------------------------|
|----------------------------------------------------------------|



m/


_____________________________________________________

Find guitar tabs and chords

A B C D E F G H I J K L M N O P Q R S T U V W X Y Z #