Log in

One click and you are in

Login with Facebook Login with Google

Why sign up and log in

Guitar Tabs Explorer
Turnpike Troubadours tabs for Long hot summer day

Intro

Mandolin or Violin Intro

Highly Trimmed Down version of Kyle's Fiddle Intro- Embellish wherever you see fit.

E---------------------------------------5------|
A------4-----------------4-----s7---5s9---9-4--|
D-7-7h9-9-7-4-2-2-4s77-7---9-7---7-------------|
G----------------------------------------------|


E--------------------------------------|
A--------------------------------------|
D---7-7-2-2-4s11-7-7-7-----------------|
G--------------------------------------|

Other versions of Long Hot Summer Day

Long hot summer dayChords

Almost there ...

Sign in to get your own page with links to favourite songs and more. You are just one click away...

Login with Facebook Login with Google