Log in

One click and you are in

Login with Facebook Login with Google

Why sign up and log in

Guitar Tabs Explorer
Josh Turner bass tabs for Your man

Bass tabs

Key: F#

These are just endings to each section


Intro:

G|---------|---------|-------|
D|---6-8-6-|-4-------|-------|
A|-4-------|---4-6-4-|-------|
E|---------|---------|-2-----|

Verse 1 To Chorus:       Verse 2 To Solo:   Verse 3 To Outro:

G|---------|---------|---------| |---------|---------| |---------|----|
D|---6-8-6-|---------|-4-------| |---6-8-6-|-4-------| |---6-8-6-|-4--|
A|-4-------|---4-6-4-|---6-4---| |-4-------|---6-4---| |-4-------|----|
E|---------|-2-------|-------6-| |---------|-------6-| |---------|----|


Chorus:

G|---------|---------|---|
D|-------8-|---6-4---|---|
A|---6-8---|-2-----6-|-4-|
E|-6-------|---------|---|


Solo To Chorus:

G|---------|---------|---------|
D|---6-8-6-|---------|-4-------|
A|-4-------|---4-6-4-|---6-4---|
E|---------|-2-------|-------6-|


Outro:

G|---------|---------|---|
D|---6-8-6-|---------|---|
A|-4-------|---4-6-4-|---|
E|---------|-2-------|-2-|

Almost there ...

Sign in to get your own page with links to favourite songs and more. You are just one click away...

Login with Facebook Login with Google