Log in

One click and you are in

Login with Facebook Login with Google

Why sign up and log in

Guitar Tabs Explorer
Turbonegro bass tabs for You give me worms

Bass tabs

Intro:
G|--------------------------|--------------------------|--------------------------|--------------------------|
D|--------------------------|--------------------------|--------------------------|--------------------------|
A|--------------------------|--------------------------|--------------------------|--------------------------|
E|-4/6----------------------|-4/6----------------------|-4/6----------------------|-4/6----------------------|

G|--------------------------|--------------------------|--------------------------|--------------------------|
D|--------------------------|--------------------------|--------------------------|--------------------------|
A|---------6-6--4-4-4-4-----|---------6-6--4-4-4-4-----|---------6-6--4-4-4-4-----|---------6-6--4-4-4-4-----|
E|-6-6-6-6--------------4-4-|-6-6-6-6--------------4-4-|-6-6-6-6--------------4-4-|-6-6-6-6--------------4-4-|
Verse:
("I Was Down On The Corner, When You Got Me Hired...")
G|--------------------------|--------------------------|--------------------------|--------------------------|
D|--------------------------|--------------------------|--------------------------|--------------------------|
A|---------6-6--4-4-4-4-----|---------6-6--4-4-4-4-----|---------6-6--4-4-4-4-----|---------6-6--4-4-4-4-----|
E|-6-6-6-6--------------4-4-|-6-6-6-6--------------4-4-|-6-6-6-6--------------4-4-|-6-6-6-6--------------4-4-|


PreChorus:
("When I Lay Down On The Sofa, Demons In My Mind Keep Taking Turns")
G|-------------------------------------------------------------------|
D|-------------------------------------------------------------------|
A|----------------------------------6-6-6-6-6-6-6-6--8-8-8-8-8-8-8-8-|
E|-2-2-2-2-2-2-2-2--2-2-2-2-2-2-2-2----------------------------------|


Chorus:
("You Gimme Worms...")
G|--------------------------|--------------------------|--------------------------|--------------------------|
D|--------------------------|--------------------------|--------------------------|--------------------------|
A|---------6-6--4-4-4-4-----|---------6-6--4-4-4-4-----|---------6-6--4-4-4-4-----|---------6-6--4-4-4-4-----|
E|-6-6-6-6--------------4-4-|-6-6-6-6--------------4-4-|-6-6-6-6--------------4-4-|-6-6-6-6--------------4-4-|

("Girl You Got Me On A Diet A La Carte Parasites")
G|-----------------------------------|
D|-----------------------------------|
A|-8-8-8-8-8-8-8-8---6-6-6-6-6-6--4--|
E|-----------------------------------|

[Solo}
G|--------------------------|--------------------------|--------------------------|--------------------------|
D|--------------------------|--------------------------|--------------------------|--------------------------|
A|---------6-6--4-4-4-4-----|---------6-6--4-4-4-4-----|---------6-6--4-4-4-4-----|---------6-6--4-4-4-4-----|
E|-6-6-6-6--------------4-4-|-6-6-6-6--------------4-4-|-6-6-6-6--------------4-4-|-6-6-6-6--------------4-4-|


Verse:
("I Was Blowing Full Steam, You Had Me Stuck On The Docks...")
G|--------------------------|--------------------------|--------------------------|--------------------------|
D|--------------------------|--------------------------|--------------------------|--------------------------|
A|---------6-6--4-4-4-4-----|---------6-6--4-4-4-4-----|---------6-6--4-4-4-4-----|---------6-6--4-4-4-4-----|
E|-6-6-6-6--------------4-4-|-6-6-6-6--------------4-4-|-6-6-6-6--------------4-4-|-6-6-6-6--------------4-4-|


PreChorus:
("As I Lean Back In My Recliner, I Feel My Stomach Toss And Turn")
G|-------------------------------------------------------------------|
D|-------------------------------------------------------------------|
A|----------------------------------6-6-6-6-6-6-6-6--8-8-8-8-8-8-8-8-|
E|-2-2-2-2-2-2-2-2--2-2-2-2-2-2-2-2----------------------------------|


Chorus:
("You Gimme Worms...")
G|--------------------------|--------------------------|--------------------------|--------------------------|
D|--------------------------|--------------------------|--------------------------|--------------------------|
A|---------6-6--4-4-4-4-----|---------6-6--4-4-4-4-----|---------6-6--4-4-4-4-----|---------6-6--4-4-4-4-----|
E|-6-6-6-6--------------4-4-|-6-6-6-6--------------4-4-|-6-6-6-6--------------4-4-|-6-6-6-6--------------4-4-|


Solo:
G|--------------------------|--------------------------|--------------------------|--------------------------|
D|--------------------------|--------------------------|--------------------------|--------------------------|
A|---------6-6--4-4-4-4-----|---------6-6--4-4-4-4-----|---------6-6--4-4-4-4-----|---------6-6--4-4-4-4-----|
E|-6-6-6-6--------------4-4-|-6-6-6-6--------------4-4-|-6-6-6-6--------------4-4-|-6-6-6-6--------------4-4-|


Chorus:
("You Gimme Worms, I Gotta Spell It Out You Never Learn...")
G|--------------------------|--------------------------|--------------------------|--------------------------|
D|--------------------------|--------------------------|--------------------------|--------------------------|
A|---------6-6--4-4-4-4-----|---------6-6--4-4-4-4-----|---------6-6--4-4-4-4-----|---------6-6--4-4-4-4-----|
E|-6-6-6-6--------------4-4-|-6-6-6-6--------------4-4-|-6-6-6-6--------------4-4-|-6-6-6-6--------------4-4-|

("Girl You Got Me On A Diet A La Carte Parasites")
G|-----------------------------------|
D|-----------------------------------|
A|-8-8-8-8-8-8-8-8---6-6-6-6-6-6--4--|
E|-----------------------------------|


Solo:
G|--------------------------|--------------------------|--------------------------|--------------------------|
D|--------------------------|--------------------------|--------------------------|--------------------------|
A|---------6-6--4-4-4-4-----|---------6-6--4-4-4-4-----|---------6-6--4-4-4-4-----|---------6-6--4-4-4-4-----|
E|-6-6-6-6--------------4-4-|-6-6-6-6--------------4-4-|-6-6-6-6--------------4-4-|-6-6-6-6--------------4-4-|

("Worms! You Gimme Worms, Gimme Gimme Gimme Gimme...")
G|--------------------------|--------------------------|--------------------------|--------------------------|
D|--------------------------|--------------------------|--------------------------|--------------------------|
A|---------6-6--4-4-4-4-----|---------6-6--4-4-4-4-----|---------6-6--4-4-4-4-----|---------6-6--4-4-4-4-----|
E|-6-6-6-6--------------4-4-|-6-6-6-6--------------4-4-|-6-6-6-6--------------4-4-|-6-6-6-6--------------4-4-|


************************************

| / Slide up

Almost there ...

Sign in to get your own page with links to favourite songs and more. You are just one click away...

Login with Facebook Login with Google