Log in

One click and you are in

Login with Facebook Login with Google

Why sign up and log in

Guitar Tabs Explorer
Turbonegro bass tabs for Sell your body to the night

Sell Your Body To The Night bass tab by Turbonegro

Turbonegro bass tabs for Sell your body to the night

Bass tabs

Album: Scandinavian Leather


Intro

-------------------------------|
-------------------------------|
-------------------------------|
--0-0------5-5--------5--------|

Verse/Chorus
------------------------------------|
------------------------------------|
--------------------------2-2-2-2---|
--0-0-0-0-0-0-0-0-5-5-5-5-----------|


Pre-chorus:
--------------------------------|
--------------------------------|
--------------------2-2-2-------|
--0-0-0-3-3-3-5-5-5-------------|


Bridge:

(Nowhere to run part)
-------------------------|
-------------------------|
-------------------------|
-3-3-3-2-----------------|


Solo:

-------------------------------------|
-------------------------------------|
-------------------------------------|

Almost there ...

Sign in to get your own page with links to favourite songs and more. You are just one click away...

Login with Facebook Login with Google