Log in

One click and you are in

Login with Facebook Login with Google

Why sign up and log in

Guitar Tabs Explorer
Turbonegro bass tabs for Pain in der arsch pocket full of cash

Pain In Der Arsch Pocket Full Of Cash bass tab by Turbonegro

Turbonegro bass tabs for Pain in der arsch pocket full of cash

Bass tabs with lyrics

Tuning: Standard (E A D G)

Key: A

Difficulty: Novice
Intro:
G|-----------------------------------|-----------------------------------|
D|-----------------------------------|-----------------------------------|
A|-----------------------------------|-----------------------------------|
E|-----------------------------------|-----------------------------------|

G|-----------------------------------|-----------------------------------|
D|-----------------------------------|-----------------------------------|
A|---------7-7-7-7--5-5-5-5--7-7-7-7-|---------7-7-7-7--5-5-5-5--7-7-7-7-|
E|-5-5-5-5---------------------------|-5-5-5-5---------------------------|


Verse:
("A cold sunday night No hope was left in sight, I was broke Without hope He gave me the eye, I said hi")
G|-----------------------------------|-----------------------------------|
D|-----------------------------------|-----------------------------------|
A|---------7-7-7-7--5-5-5-5--7-7-7-7-|---------7-7-7-7--5-5-5-5--7-7-7-7-|
E|-5-5-5-5---------------------------|-5-5-5-5---------------------------|


PreChorus:
("And Now I'm Gonna Die")
G|-------------------------------|
D|-------------------------------|
A|-5-5-5-5--7-7-7-7----4---------|
E|-------------------5---2-2-2-2-|


Chorus:
("Pain in der arsch, Pain in der arsch, Pain in der arsch, Pocket full of cash")
G|----------------------------------------|--------------------------------|
D|----------------------------------------|--------------------------------|
A|---5-5-5--7-7-6/7-7----5-5-5--7-7-6/7-7-|---5-5-5--7-7-6/7-7---5---------|
E|----------------------------------------|--------------------5---5-5-5-5-|

Intro/Main:
G|-----------------------------------|-----------------------------------|
D|-----------------------------------|-----------------------------------|
A|---------7-7-7-7--5-5-5-5--7-7-7-7-|---------7-7-7-7--5-5-5-5--7-7-7-7-|
E|-5-5-5-5---------------------------|-5-5-5-5---------------------------|


Verse:
("I just wanted to live for today, I wanted fun but I couldn't pay, I met an old man I sold him a fuck...")
G|-----------------------------------|-----------------------------------|
D|-----------------------------------|-----------------------------------|
A|---------7-7-7-7--5-5-5-5--7-7-7-7-|---------7-7-7-7--5-5-5-5--7-7-7-7-|
E|-5-5-5-5---------------------------|-5-5-5-5---------------------------|


PreChorus:
("And Now I'm Gonna Die")
G|-------------------------------|
D|-------------------------------|
A|-5-5-5-5--7-7-7-7----4---------|
E|-------------------5---2-2-2-2-|


Chorus:
("Pain in der arsch, Pain in der arsch, Pain in der arsch, Pocket full of cash")
G|----------------------------------------|--------------------------------|
D|----------------------------------------|--------------------------------|
A|---5-5-5--7-7-6/7-7----5-5-5--7-7-6/7-7-|---5-5-5--7-7-6/7-7---5---------|
E|----------------------------------------|--------------------5---5-5-5-5-|


Bridge:
("Hey, Hey, Hey, Hey")
G|---------------------------------|---------------------------------|
D|---------------------------------|---------------------------------|
A|-7-7-7-----------7-7-7-----------|-7-7-7-----------7-7-7-----------|
E|-------2-2--5-5--------2-2--5-5--|-------2-2--5-5--------2-2--5-5--|


Intro/Main:
G|-----------------------------------|-----------------------------------|
D|-----------------------------------|-----------------------------------|
A|---------7-7-7-7--5-5-5-5--7-7-7-7-|---------7-7-7-7--5-5-5-5--7-7-7-7-|
E|-5-5-5-5---------------------------|-5-5-5-5---------------------------|


Verse:
("I took it up the arsch for a small amount of cash, Now I started losing weight and I don't feel too great")
G|-----------------------------------|-----------------------------------|
D|-----------------------------------|-----------------------------------|
A|---------7-7-7-7--5-5-5-5--7-7-7-7-|---------7-7-7-7--5-5-5-5--7-7-7-7-|
E|-5-5-5-5---------------------------|-5-5-5-5---------------------------|


PreChorus:
("And Now I'm Gonna Die")
G|-------------------------------|
D|-------------------------------|
A|-5-5-5-5--7-7-7-7----4---------|
E|-------------------5---2-2-2-2-|


Chorus:
("Pain in der arsch, Pain in der arsch, Pain in der arsch, Pocket full of cash")
G|----------------------------------------|--------------------------------|
D|----------------------------------------|--------------------------------|
A|---5-5-5--7-7-6/7-7----5-5-5--7-7-6/7-7-|---5-5-5--7-7-6/7-7---5---------|
E|----------------------------------------|--------------------5---5-5-5-5-|

("Pain in der arsch, Pain in der arsch, Pain in der arsch, Pocket full of cash")
G|----------------------------------------|--------------------------------|-------|
D|----------------------------------------|--------------------------------|-------|
A|---5-5-5--7-7-6/7-7----5-5-5--7-7-6/7-7-|---5-5-5--7-7-6/7-7---5---------|-4-----|
E|----------------------------------------|--------------------5---5-5-5-5-|-------|

Almost there ...

Sign in to get your own page with links to favourite songs and more. You are just one click away...

Login with Facebook Login with Google