Log in

One click and you are in

Login with Facebook Login with Google

Why sign up and log in

Guitar Tabs Explorer
Turbonegro tabs for No im alpha male

Guitar tabs

album: Retox
song: No, I'm alpha male

(intro)
||----------------------------------------------------------------------|
||----------------------------------------------------------------------|
||----------------------------------------------------------------------| (x2)
||-----9--7--9----12-11--7--10---9--7--9--7---9-----5--5--7--7----------|
||-----7--5--7----10--9--5--8----7--5--7--5---7-----3--3--5--5----------|
||----------------------------------------------------------------------|
(verse 1)
||------------------------------------------------------------------------|
||------------------------------------------------------------------------|
||------------------------------------------------------------------------|
||-----9-7-9--9-9-9-9-9-9---12--10---7-10--9--7--9--7-9---5--5--7--7------|
||-----7-5-7--7-7-7-7-7-7---10---9---5--8--7--5--7--5-7---3--3--5--5------|
||------------------(PM)--------------------------------------------------|
(let's go!)

||------------------------------------------------------------------------|
||------------------------------------------------------------------------|
||------------------------------------------------------------------------|
||-----9-7-9--9-9-9-9-9-9---12--10---7-10--9--7--9--7-9---5--5--7-7-7-7-7-|
||-----7-5-7--7-7-7-7-7-7---10---9---5--8--7--5--7--5-7---3--3--5-5-5-5-5-|
||------------------(PM)--------------------------------------------------|
(alright!)

||-------------------------------------------------------------------|
||-------------------------------------------------------------------|
||-------------------------------------------------------------------|  (x2)
||---2-4-4-4-4-4-(x2)--5-0-7-7-7-7-7-7-7----2-2-2-2-2-2--------------|
||---0-2-2-2-2-2-------3-2-5-5-5-5-5-5-5----0-2-2-2-2-2--------------|
||-------------------------------------------------------------------|
(am I scorpio...)

||--------------------------------------------------------------------------|
||--------------------------------------------------------------------------|
||--------------------------------------------------------------------------|
||--9-7-9--9-9-9-9-9-9--12--10---7-10--9--7--9--7-9-9-9-9--5--5--7--7-------|
||--9-5-7--7-7-7-7-7-7--10---9---5--8--7--5--7--5-7-7-7-7--3--3--5--5-------|
||------------------(PM)---------------------------------(PM)---------------|


||---------------------------------------------------------------------------|
||---------------------------------------------------------------------------|
||---------------------------------------------------------------------------|
||--9-7-9--9-9-9-9-9-9---12--10---7-10--9--7--9--7-9-9-9-9--5--5--7-7-7-7-7--|
||--7-5-7--7-7-7-7-7-7---10---9---5--8--7--5--7--5-7-7-7-7--3--3--5-5-5-5-5--|
||------------------(PM)---------------------------(PM)----------------------|


well, this is all I got, and it's probably not right, if someone can complete this tab,
do! I also didn't ad the solo/lead guitar part cuz I'm just not good enough...yet

Johnny Rocketfingerz

Almost there ...

Sign in to get your own page with links to favourite songs and more. You are just one click away...

Login with Facebook Login with Google