Log in

One click and you are in

Login with Facebook Login with Google

Why sign up and log in

Guitar Tabs Explorer
Turbonegro tabs for If you see kaye

Guitar tabs

Tab made by Weezel (www.thesailormen.com)

--------------------------------------------------------------|
--------------------------------------------------------------|
-9---7---5---7---9-9-9-9--------------------------------------|
-9---7---5---7---9-9-9-9--------------------------------------|
-7---5---3---5---7-7-7-7--------------------------------------|
-7---5---3---5---7-7-7-7--------------------------------------|

Hey, if you se kaye, if you see kaye, if you see kaye, tell her...
--------------------------------------------------------------|
--------------------------------------------------------------|
-9-9-9-9-------12-12-9-9-9-9----------------------------------|
-9-9-9-9-10-10-12-12-9-9-7-7----------------------------------|
-7-7-7-7-10-10-10-10-7-7-7-7----------------------------------|
-7-7-7-7-8--8--10-10-7-7-7-7----------------------------------|

well if you see kay, we met at ucla...(x2)
--------------------------------------------------------------|
--------------------------------------------------------------|
-9---7---5---7---9--------------------------------------------|
-9---7---5---7---9--------------------------------------------|
-7---5---3---5---7--------------------------------------------|
-7---5---3---5---7--------------------------------------------|

love her forever, love her today...
---------------------------------------------------------------|
---------------------------------------------------------------|
-7-7-7-7-9-9-9-9-5-5-5-5-9-9-9-9-7-7-7-7-9-9-9-5-5-5-5-4-4-4-4-|
-7-7-7-7-9-9-9-9-5-5-5-5-9-9-9-9-7-7-7-7-9-9-9-5-5-5-5-4-4-4-4-|
-5-5-5-5-7-7-7-7-3-3-3-3-7-7-7-7-5-5-5-5-7-7-7-3-3-3-3-2-2-2-2-|
-5-5-5-5-7-7-7-7-3-3-3-3-7-7-7-7-5-5-5-5-7-7-7-3-3-3-3-2-2-2-2-|


Hey, if you se kaye, if you see kaye, if you see kaye... (x3)
--------------------------------------------------------------|
--------------------------------------------------------------|
-9-9-9-9-------12-12------------------------------------------|
-9-9-9-9-10-10-12-12------------------------------------------|
-7-7-7-7-10-10-10-10------------------------------------------|
-7-7-7-7-8--8--10-10------------------------------------------|

ending (x2)
--------------------------------------------------------------|
--------------------------------------------------------------|
-9-9----12-9-9----12------------------------------------------|
-9-9-10-12-9-9-10-12------------------------------------------|
-7-7-10-10-7-7-10-10------------------------------------------|
-7-7-8--10-7-7-8--10------------------------------------------|

She rides in limouzines...
--------------------------------------------------------------|
--------------------------------------------------------------|
--------------------------------------------------------------|
-5-5-5-7-7-7-8-8-8-10-10-10-----------------------------------|
-5-5-5-7-7-7-8-8-8-10-10-10-----------------------------------|
-3-3-3-5-5-5-6-6-6-8--8--8------------------------------------|

she dance with kings n´queens...
--------------------------------------------------------------|
--------------------------------------------------------------|
-5-5-----7-7-----8-8-----10-10--------------------------------|
-5-5--5--7-7--7--8-8--8--10-10--10----------------------------|
-3-3--5--5-5--7--6-6--8--8--8---10----------------------------|
------3-------5-------6---------8-----------------------------|

If you see kaye, if you see kaye hey!
--------------------------------------------------------------|
--------------------------------------------------------------|
--------------------------------------------------------------|
--------------------------------------------------------------|
-7-5-------------5--------------------------------------------|
-----7-6-5-3-5-3----------------------------------------------|

during solo rhythm guitar plays (x2)
--------------------------------------------------------------|
--------------------------------------------------------------|
-9-9-9-9-7-7-7-7-5-5-5-5-7-7-7-7-9-9-9-9----------------------|
-9-9-9-9-7-7-7-7-5-5-5-5-7-7-7-7-9-9-9-9----------------------|
-7-7-7-7-5-5-5-5-3-3-3-3-5-5-5-5-7-7-7-7----------------------|
-7-7-7-7-5-5-5-5-3-3-3-3-5-5-5-5-7-7-7-7----------------------|

love her forever, love her today...
--------------------------------------------------------------|
--------------------------------------------------------------|
-7-7-7-7-9-9-9-9-5-5-5-5-9-9-9-9-7-7-7-7-9-9-9-9-5-5-5-5-4----|
-7-7-7-7-9-9-9-9-5-5-5-5-9-9-9-9-7-7-7-7-9-9-9-9-5-5-5-5-4----|
-5-5-5-5-7-7-7-7-3-3-3-3-7-7-7-7-5-5-5-5-7-7-7-7-3-3-3-3-2----|
-5-5-5-5-7-7-7-7-3-3-3-3-7-7-7-7-5-5-5-5-7-7-7-7-3-3-3-3-2----|

Hey, if you se kaye, if you see kaye, if you see kaye... (x3)
--------------------------------------------------------------|
--------------------------------------------------------------|
-9-9-9-9-------12-12------------------------------------------|
-9-9-9-9-10-10-12-12------------------------------------------|
-7-7-7-7-10-10-10-10------------------------------------------|
-7-7-7-7-8--8--10-10------------------------------------------|


ending (x2)
--------------------------------------------------------------|
--------------------------------------------------------------|
-9-9----12-9-9----12------------------------------------------|
-9-9-10-12-9-9-10-12------------------------------------------|
-7-7-10-10-7-7-10-10------------------------------------------|
-7-7-8--10-7-7-8--10------------------------------------------|

Almost there ...

Sign in to get your own page with links to favourite songs and more. You are just one click away...

Login with Facebook Login with Google