Log in

One click and you are in

Login with Facebook Login with Google

Why sign up and log in

Guitar Tabs Explorer
Turbonegro bass tabs for High on the crime

Bass tabs

Band: Turbonegro

Tuning: Standards (G)


Intro:
G||---------|
D||---------|
A||-8~------|
E||---------|

G||--------------------------------------------------------------------------|
D||--------------------------------------------------------------------------|
A||-8-8---6--8-8---6--8-8---6--8-8---10--11-11-11-11-11-11-11-11-11-11-11-11-|
E||--------------------------------------------------------------------------|

G||---------------------------------------------------------------------------|
D||-------6-------------------------------------------------------------------|
A||-8-6-8---8-6--1-1-1-1-1-1--4-4-4-4-4--6---6--8-8-8-8-8-8-8-8-8-8-8-8-8-8-8-|
E||----------------------------------------8----------------------------------|


Verse:
G||--------------------------------------------------------------------------|
D||--------------------------------------------------------------------------|
A||-8-8---6--8-8---6--8-8---6--8-8---10--11-11-11-11-11-11-11-11-11-11-11-11-|
E||--------------------------------------------------------------------------|

G||---------------------------------------------------------------------------|
D||-------6-------------------------------------------------------------------|
A||-8-6-8---8-6--1-1-1-1-1-1--4-4-4-4-4--6---6--8-8-8-8-8-8-8-8-8-8-8-8-8-8-8-| X2
E||----------------------------------------8----------------------------------|


Pre-verse
G||-------------------------------------------------------------------|
D||-------------------------------------------------------------------|
A||-4--4-4-4-4-4-1--1-1-1-1-1-7--7-7-7-7-7-7-7-7-7-7-7-7-7-7-7-7------|
E||-------------------------------------------------------------------|

G||-------------------------------------------------------------------|
D||-------------------------------------------------------------------|
A||-4--4-4-4-4-4-1--1-1-1-1-1---6-6-6-3---6-6-6-3--6-8----------------|
E||-------------------------------------------------------------------|

G||---------|
D||---------|
A||-8~------|
E||---------|

Chorus:
G||--------------------------------------------------------------------|
D||------------------6-6-6-6-6-6-6-6-------------------8-8-8-8-8-8-8-8-|
A||-8-8-8-8-8-8-8-8-------------------6-6-6-6-6-6-6-6------------------| X2
E||--------------------------------------------------------------------|

G||-----------------------------|
D||-----------------------------|
A||-8-8-8-8-8-8-8-8--6--------6-| X4
E||---------------------8--6----|


Verse:
G||--------------------------------------------------------------------------|
D||--------------------------------------------------------------------------|
A||-8-8---6--8-8---6--8-8---6--8-8---10--11-11-11-11-11-11-11-11-11-11-11-11-|
E||--------------------------------------------------------------------------|

G||---------------------------------------------------------------------------|
D||-------6-------------------------------------------------------------------|
A||-8-6-8---8-6--1-1-1-1-1-1--4-4-4-4-4--6---6--8-8-8-8-8-8-8-8-8-8-8-8-8-8-8-| X2
E||----------------------------------------8----------------------------------|


Pre-verse:
G||-------------------------------------------------------------------|
D||-------------------------------------------------------------------|
A||-4--4-4-4-4-4-1--1-1-1-1-1-7--7-7-7-7-7-7-7-7-7-7-7-7-7-7-7-7------|
E||-------------------------------------------------------------------|

G||-------------------------------------------------------------------|
D||-------------------------------------------------------------------|
A||-4--4-4-4-4-4-1--1-1-1-1-1---6-6-6-3---6-6-6-3--6-8----------------|
E||-------------------------------------------------------------------|

G||----------------------------------|
D||----------------------------------|
A||-8~----------------------------6h8|
E||---------------------------5h7----|


Chorus:
G||--------------------------------------------------------------------|
D||------------------6-6-6-6-6-6-6-6-------------------8-8-8-8-8-8-8-8-|
A||-8-8-8-8-8-8-8-8-------------------6-6-6-6-6-6-6-6------------------| X4
E||--------------------------------------------------------------------|

G||-----------------------------|
D||-----------------------------|
A||-8-8-8-8-8-8-8-8--6--------6-| X4
E||---------------------8--6----|

And that´s it

Almost there ...

Sign in to get your own page with links to favourite songs and more. You are just one click away...

Login with Facebook Login with Google